Song name
# A B C D E F G H I J K L M N O P Q R S T U V W X Y Z

Misc Unsigned Bands - Destroy All Operating Systems - Flaw tab

Help us improve GuitareTab! Take a short survey!
DESTROY ALL OPERATING SYSTEMS - FLAW

E-------------------------------------------------------------|
B-----------------------------11---3---6----------------------|
G----------12--3--7---------------------11---3---6------------|
D-12--3--7----------12---3---7--------------------11---3---6--|
A-------------------------------------------------------------|
D-------------------------------------------------------------|


E----------------------------------------|
B----------------------------------------|
G----------------------------------------|
D-1-2-4-2-1-0-1-2-4-2-4-4---------1------|
A-1-2-2-2-1-0-1-2-2-2-2-2----------2-----|
D-1-2---2-1-0-1-2---2-----5-3-2-0---3-0--|


E------14-14-14-14-14-14-14-14-14-14--------------------------|
B------------------13----------------13-13--------------------|
G-4~~5-12-12-12-12-12-12-12-12-12-13----12--------------------|
D-3~~4----------------11-11-11-11-11-11-11--------------------|
A-2~~3-------------------------------------12-13-12-13--------|
D-3~~4-------------------------------------11-12-11-12--------|


www.myspace.com/destroyalloperatingsystems
Related for Destroy All Operating Systems - Flaw tab