Guitaretab - guitar tabs
Song name
# A B C D E F G H I J K L M N O P Q R S T U V W X Y Z

Misc Unsigned Bands - The Arusha Accord - Solstice tab

-------------------------------------------------------------------------
                     Solstice - The Arusha Accord
-------------------------------------------------------------------------

My Email: moss_grows_on_tiles@hotmail.com

Band website: www.myspace.com/thearushaaccorduk

This song was recorded on two guitars. I've tabbed it for one, so it's difficult and
are some big stretches but i can play it fine and if you're looking to play songs by this
chances are you're good enough to understand how technical they are. This isn't 100% and 
dont know the real tuning but I've done my best!

[ Tab from: http://www.guitaretab.com/m/misc-unsigned-bands/114847.html ]
E|-------------------------------------5t8/10p8p5---55-----------------128-------------------|
B|--------------10--13-15--------6-----------------653-------------10------------------------|
G|-----------9----------------------------------------------5-7------------10/127-10-9-7---|
D|-7----10-------------1012----------------------------------------------------------------|
A|------8--12--------------8--8--5-------------------------------------------------------------|
D|--3---7----------15--------8---------------------------12p08-9-----------------------------|

--------------------------------------------------------------------6p5------------6p5---------|
-----------------------------------------------------------------------------------------------|
-------------------------------------10---------------------------7------5/7\5---7-----7/5-----|
--10---------5/7------------5/7-------------------3----5---------8--------------8--------------|
-------------------8p7p5------------------------5----------------------------------------------|
-----10p0h3--------------0h5----8-------12p0h3-------01---------------------------------------|
Related for The Arusha Accord - Solstice tab