Song name
# A B C D E F G H I J K L M N O P Q R S T U V W X Y Z

Misc Unsigned Bands - Gravis - Death Must Die tab

Intro (Guitars 1&2)
Eb|---------------------------------|---------------------------------|
Bb|---------------------------------|---------------------------------|
Gb|-7~------9~------10~-----9~------|-7~------5~------4~--------------|
Db|-7~------9~------10~-----9~------|-7~------5~------4~--------------|
Ab|-5~------7~------8~------7~------|-5~------3~------2~--------------|
Eb|---------------------------------|---------------------------------|

Eb|---------------------------------|---------------------------------|
Bb|---------------------------------|---------------------------------|
Gb|-7~------9~------10~-----9~------|-7~------5~------7~--------------|
Db|-7~------9~------10~-----9~------|-7~------5~------7~--------------|
Ab|-5~------7~------8~------7~------|-5~------3~------5~--------------|
Eb|---------------------------------|---------------------------------|

Eb|---------------------------------|---------------------------------|
Bb|---------------------------------|---------------------------------|
Gb|-7~------9~------10~-------------|-10~-----9~------7~--------------|
Db|-7~------9~------10~-------------|-10~-----9~------7~--------------|
Ab|-5~------7~------8~--------------|-8~------7~------5~--------------|
Eb|---------------------------------|---------------------------------|

Eb|---------------------------------|---------------------------------|
Bb|---------------------------------|---------------------------------|
Gb|-7~------9~------10~-10~---------|-10~-----9~------7~--7~----------|
Db|-7~------9~------10~-10~---------|-10~-----9~------7~--7~----------|
Ab|-5~------7~------8~--8~----------|-8~------7~------5~--5~----------|
Eb|---------------------------------|---------------------------------|

Pre-Verse (Guitar 1)                (Guitar 2)
Eb|---------------------------------|---------------------------------|
Bb|---------------------------------|---------------------------------|
Gb|---------------------------------|---------------------------------|rpt
Db|-2---------------------------7---|-------------2---------------7---|x3
Ab|-2---------------------------7---|-------------2---------------7---|
Eb|-0---------------------------5---|-000-000-000-0---000-000-000-5---|
                                      PM.........     PM.........
(Guitar 1)                          (Guitar 2)
Eb|---------------------------------|---------------------------------|
Bb|---------------------------------|---------------------------------|
Gb|---------------------------------|---------------------------------|
Db|-2---------------12\---------7---|-------------2---------------7---|
Ab|-2---------------12\---------7---|-------------2---------------7---|
Eb|-0---------------12\---------5---|-000-000-000-0---000-000-000-5---|
                                      PM.........     PM.........
Verse (Guitars 1&2)
Eb|---------------------------------|---------------------------------|
Bb|---------------------------------|---------------------------------|
Gb|---------------------------------|---------------------------------|rpt
Db|-------------2---------------7---|-------------2---------------7---|x2
Ab|-------------2---------------7---|-------------2---------------7---|
Eb|-000-000-000-0---000-000-000-5---|-000-000-000-0---000-000-000-5---|
    PM.........     PM........rpt x2  PM.........     PM........rpt x2
Eb|---------------------------------|---------------------------------|
Bb|---------------------------------|---------------------------------|
Gb|*----------------------------5~-*|*-------------------------------*|
Db|*------------4~--------------5~-*|*------------2~--------------7~-*|
Ab|-------------4~--------------3~--|-------------2~--------------7~--|
Eb|-222-222-222-2~--222-222-222-----|-000-000-000-0~--000-000-000-5~--|
    PM.........     PM.........       PM.........     PM.........
Eb|---------------------------------|---------------------------------|
Bb|---------------------------------|---------------------------------|
Gb|---------------------------------|---------------------------------|rpt
Db|-------------7/4-------------7/5-|-------------7/4-------------5---|x2
Ab|-------------7/4-------------7/5-|-------------7/4-------------5---|
Eb|-222-222-222-5/2-222-222-222-5/3-|-222-222-222-5/2-222-222-333-3---|
    PM.........     PM.........       PM.........     PM.........
Break (Guitars 1&2)
Eb|---------------------------------|---------------------------------|
Bb|---------------------------------|---------------------------------|
Gb|---------------------------------|-----------------3/5-5-5-5-5-5-5-|rpt
Db|-7/4-4-4-4-4-4-4-7/5-5-5-5-5-5-5-|-5/2-2-2-2-2-2-2-3/5-5-5-5-5-5-5-|x2
Ab|-7/4-4-4-4-4-4-4-7/5-5-5-5-5-5-5-|-5/2-2-2-2-2-2-2-3/5-5-5-5-5-5-5-|
Eb|-5/2-2-2-2-2-2-2-5/3-3-3-3-3-3-3-|-5/2-2-2-2-2-2-2-----------------|
        PM.........     PM.........       PM.........     PM.........
(Guitar 1)                          (Guitar 2)
Eb|---------------------------------|---------------------------------|
Bb|---------------------------------|---------------------------------|
Gb|-9b-----(9)\---------------------|---------------------------------|
Db|---------------------------------|-2-------------------------------|
Ab|---------------------------------|-2-------------------------------|
Eb|---------------------------------|-0-------------------------------|

Verse

Chorus (Guitars 1&2)
Eb|---------------------------------|---------------------------------|
Bb|---------------------------------|---------------------------------|
Gb|---------------------------------|-----------------3/5-5-5-5-5-5-5-|rpt
Db|-7/4-4-4-4-4-4-4-7/5-5-5-5-5-5-5-|-5/2-2-2-2-2-2-2-3/5-5-5-5-5-5-5-|x2
Ab|-7/4-4-4-4-4-4-4-7/5-5-5-5-5-5-5-|-5/2-2-2-2-2-2-2-3/5-5-5-5-5-5-5-|
Eb|-5/2-2-2-2-2-2-2-5/3-3-3-3-3-3-3-|-5/2-2-2-2-2-2-2-----------------|
        PM.........     PM.........       PM.........     PM.........
Eb|---------------------------------|---------------------------------|
Bb|---------------------------------|---------------------------------|
Gb|-7~------10~-----9~------7~------|---------------------------------|
Db|-7~------10~-----9~------7~------|-7~------------------------------|
Ab|-5~------8~------7~------5~------|-7~------------------------------|
Eb|---------------------------------|-5~------------------------------|

Pre-Solo (Guitars 1&2)
Eb|---------------------------------|---------------------------------|
Bb|---------------------------------|---------------------------------|
Gb|---------------------------------|---------------------------------|rpt
Db|---------------------------------|---------------------------------|x4
Ab|---------2---------------2---2---|---------2---------------2-------|
Eb|-555-555---3~----555-555---3-----|-555-555---3~----555-555---3-2---|
    PM.....         PM.....           PM.....         PM.....
Solo (Guitar 2)
Eb|---------------------------------|---------------------------------|
Bb|---------------------------------|---------------------------------|
Gb|---------------------------------|---------------------------------|rpt
Db|---------------------------------|---------------------------------|x2
Ab|---------2---------------2---2---|---------2---------------2-------|
Eb|-555-555---3~--5-555-555---3---5-|-555-555---3~--5-555-555---3-2-5-|
    PM.....         PM.....           PM.....         PM.....
Eb|---------------------------------|---------------------------------|
Bb|---------------------------------|---------------------------------|
Gb|-----------------5~------4~------|-------------------------4~------|rpt
Db|-7~--------------5~------4~------|-7~--------------5~------4~------|x2
Ab|-7~--------------3~------2~------|-7~--------------5~------2~------|
Eb|-5~------------------------------|-5~--------------3~--------------|

Eb|---------------------------------|---------------------------------|
Bb|---------------------------------|---------------------------------|
Gb|---------------------------------|---------------------------------|rpt
Db|---------------------------------|---------------------------------|x6
Ab|---------2---------------2---2---|---------2---------------2-------|
Eb|-555-555---3~--5-555-555---3---5-|-555-555---3~--5-555-555---3-2-5-|
    PM.....         PM.....           PM.....         PM.....
Post Solo x2 (Guitars 1&2)    rpt x2                            rpt x2
Eb|---------------------------------|---------------------------------|
Bb|---------------------------------|---------------------------------|
Gb|*7-------10~-9~--999-999-999-999*|*7~------10~-5~--555-555-555-555*|rpt
Db|*7~------10~-9~--999-999-999-999*|*7~------10~-5~--555-555-555-555*|x2
Ab|-5~------8~--7~--777-777-777-777-|-5~------8~--3~--333-333-333-333-|
Eb|---------------------------------|---------------------------------|
                    PM.............                   PM.............
Eb|---------------------------------|
Bb|---------------------------------|
Gb|-7~------------------------------|
Db|-7~------------------------------|
Ab|-5~------------------------------|
Eb|---------------------------------|

Verse
Chorus

Bridge (Guitars 1&2)          rpt x2                            rpt x2
Eb|---------------------------------|---------------------------------|
Bb|---------------------------------|---------------------------------|
Gb|*x-x-9~----------12~---10~---9--*|*-------------------------------*|rpt
Db|*x-x-9~----------12~---10~---9--*|*x-x-9~----------12~---10~---9--*|x2
Ab|-x-x-8~----------10~---8~----7---|-x-x-9~----------12~---10~---9---|
Eb|---------------------------------|-x-x-8~----------10~---8~----7---|

2nd Solo (Guitar 2)           rpt x2                            rpt x2
Eb|---------------------------------|---------------------------------|
Bb|---------------------------------|---------------------------------|
Gb|*101010101010101012~---10~---9--*|*-------------------------------*|rpt
Db|*101010101010101012~---10~---9--*|*101010101010101012~---10~---9--*|x2
Ab|-8-8-8-8-8-8-8-8-10~---8~----7---|-101010101010101012~---10~---9---|
Eb|---------------------------------|-8-8-8-8-8-8-8-8-10~---8~----7---|
    PM..............                  PM..............
Outro (Guitars 1&2)           rpt x2                            rpt x2
Eb|---------------------------------|---------------------------------|
Bb|---------------------------------|---------------------------------|
Gb|*x-x-9~----------12~---10~---9--*|*-------------------------------*|
Db|*x-x-9~----------12~---10~---9--*|*x-x-9~----------12~---10~---9--*|
Ab|-x-x-8~----------10~---8~----7---|-x-x-9~----------12~---10~---9---|
Eb|---------------------------------|-x-x-8~----------10~---8~----7---|
                              rpt x2                            rpt x2
Eb|---------------------------------|---------------------------------|
Bb|---------------------------------|---------------------------------|
Gb|*101010101010101012~---10~---9--*|*-------------------------------*|
Db|*101010101010101012~---10~---9--*|*101010101010101012~---10~---9--*|
Ab|-8-8-8-8-8-8-8-8-10~---8~----7---|-101010101010101012~---10~---9---|
Eb|---------------------------------|-8-8-8-8-8-8-8-8-10~---8~----7---|
    PM..............                  PM..............
Eb|---------------------------------|
Bb|---------------------------------|
Gb|---------------------------------|
Db|-2~------------------------------|
Ab|-2~------------------------------|
Eb|-0~------------------------------|
Tap to rate this tab
# A B C D E F G H I J K L M N O P Q R S T U V W X Y Z