Song name
# A B C D E F G H I J K L M N O P Q R S T U V W X Y Z

Misc Unsigned Bands - Scared Wierd Little Guys - Volvo Man tab

Intro

e|----------------------------------------------------|
B|----------------------------------------------------|
G|-----------4-2-4-6-4--6\7-6-4-2-4-2-----------------|
D|-----0-2-4--------------------------4-2-------------|
A|-2-4------------------------------------4-2-0-2-4-2-|
E|----------------------------------------------------|


Verse 1

e|---------0---0---|
B|---------2---0---|
G|-4-------2---0---|  Repeat 'till chorus
D|-4---4---2---2---|
A|-2---4---0---2---|
E|-----2-------0---|


Chorus

e|---------|
B|---------|
G|---------|   I am volvo man... 
D|-5---7---|
A|-5---7---|
E|-3---5---|


Trumpet noises with your mouth while playing the verse tableture.
Then you just play this stuff where it fits in the song
Tap to rate this tab
# A B C D E F G H I J K L M N O P Q R S T U V W X Y Z