Song name
# A B C D E F G H I J K L M N O P Q R S T U V W X Y Z

Misc Unsigned Bands - The Status - Get Back On Your Feet tab

I saw these guys with Bayside last year and really like them.
I've been following what they've been up to on myspace a bunch
and I really dig this song. They had no tabs at all for any
songs so I thought I'd start it out with this one. Leave some
comments.

Song:   Get Back On Your Feet
Band:   The Status
Tuning: Standard

http://www.myspace.com/thestatus


Intro
E----------------------------------------------------|
B--1-1--1-1--1-1--1-1-1111---------------------------|
G--2-2--2-2--2-2--2-2-2222--2-2--2-2--2-2--2-2-2222--|
D--2-2--2-2--0-0--0-0-0000--3-3--3-3--3-3--3-3-3333--|
A--0-0--0-0--0-0--0-0-0000--3-3--3-3--3-3--3-3-3333--|
E------------2-2--2-2-2222--1-1--1-1--1-1--1-1-1111--|

E------------------------------------------------|
B--1-1--1-1--1-1--1-1-1111-----------------------|
G--2-2--2-2--2-2--2-2-2222--2222-2222-2222-2222--|
D--2-2--2-2--0-0--0-0-0000--3333-3333-3333-3333--|
A--0-0--0-0--0-0--0-0-0000--3333-3333-3333-3333--|
E------------2-2--2-2-2222--1111-1111-1111-1111--|
                            xxxx xxx  xxx

E----------------------------------------------------|
B--1-1--1-1--1-1--1-1-1111---------------------------|
G--2-2--2-2--2-2--2-2-2222--2-2--2-2--2-2--2-2-2222--|
D--2-2--2-2--0-0--0-0-0000--3-3--3-3--3-3--3-3-3333--| x2
A--0-0--0-0--0-0--0-0-0000--3-3--3-3--3-3--3-3-3333--|
E------------2-2--2-2-2222--1-1--1-1--1-1--1-1-1111--|

Verse
E----------------------------------|
B--1-------------------------------|
G--2------2-2--2-2--2-2--2-2-2222--|
D--2------3-3--3-3--3-3--3-3-3333--| x2
A--0------3-3--3-3--3-3--3-3-3333--|
E---------1-1--1-1--1-1--1-1-1111--|

E----------------------------------------|
B--1111-1111-1111-1111-------------------|
G--2222-2222-2222-2222-2222-2222-2222-2--|
D--0000-0000-0000-0000-3333-3333-3333-3--|
A--0000-0000-0000-0000-3333-3333-3333-3--|
E--2222-2222-2222-2222-1111-1111-1111-1--|

Chorus
E--3333-3333-1111-1111-0000-0000-1111-1111--|
B--3333-3333-1111-1111-1111-1111-1111-1111--|
G--5555-5555-2222-2222-2222-2222-2222-2222--|
D--5555-5555-3333-3333-2222-2222-3333-3333--|
A--3333-3333-3333-3333-0000-0000-3333-3333--|
E--3333-3333-1111-1111-0000-0000-1111-1111--|

E--3333-3333-5555-5555-0000-0000-1111-1111--|
B--3333-3333-5555-5555-1111-1111-1111-1111--|
G--5555-5555-7777-7777-2222-2222-2222-2222--|
D--5555-5555-7777-7777-2222-2222-3333-3333--|
A--3333-3333-5555-5555-0000-0000-3333-3333--|
E--3333-3333-5555-5555-0000-0000-1111-1111--|
Tap to rate this tab
# A B C D E F G H I J K L M N O P Q R S T U V W X Y Z