Song name
# A B C D E F G H I J K L M N O P Q R S T U V W X Y Z

Misc Unsigned Bands - Josh Rice - Seaview tab

-------------------------------------------------------------------------------
			     SEAVIEW - Josh Rice
-------------------------------------------------------------------------------
Tabbed by: Josh's #1 Fan
Email: ilovejoshrice@hotmail.com

Tuning: Standard (EADGBe)
Capo on 3

INTRO

    C                  Am                Em             Fmaj       G
e|--0-0-0-0-0-0--------0-0---------------0-0------0-0----1-1-1-1---3-3-3-3---|
B|--1-1-1-1-1-1--------1-1--0h1p0--------0-0------0-0----1-1-1-1---0-0-0-0---|
G|--0-0-0-0-0-0-----0--2-2--------2-0----0-0------0-0----2-2-2-2---0-0-0-0---| x2
D|--2-2-2-2-2-2-0h2----2-2------------0--2-2------2-2----3-3-3-3---0-0-0-0---|
A|--3-3-3-3-3-3--------0-0---------------2-2--0h2-2-2----3-3-3-3---2-2-2-2---|
E|--0-0-0-0-0-0--------0-0---------------0-0------0-0----1-1-1-1---3-3-3-3---|

VERSE
C              Am
It would be so easy
   Em              Fmaj      G       C
To throw, throw ourselves into these waves,
          Am               Em
Hope that one day they'll return us,
          Fmaj         G           C
Unless we swim for the rest of our days

(Chords the same as verse 1)
I know theres nothing wrong,
With cricket in the cold, bongos on the beach
It's not our place to say what's right or whats wrong,
We're finding beautiful places to meet

CHORUS
               Em
And i've got a seaview,
        Am                    Em
From my window, the window of moooi room,
C                Em
Come and let me show you
    Am                       Em
My seaview, the seaview from moooi room

C          D                        G                   E
Although i live in the hills, i can still show you what i crave,
   Fmaj
I craaaaaaaaaaaave,
        G
I crave you,
G
Cos you complete my seaview


(Incomprehensible wailing using Chorus chord prog.)

VERSE
Wouldn't you be sad if i swam
Into the heart of the reef out there
Baby you'd be glad if i were,
If i were to sit with you instead

All my love's declared,
My emotions right infront of you, cold naked and scared,
If i nearly drowned on the way,
Would you gently hold my head

CHORUS
And i've got a seaview,
From my window, the window of moooi room, (mistake)
Come and let me show you
My seaview, the seaview from moooi room

Although i live in the hills, i can still show you what i crave,
I craaaaaaaaaaaave,
I crave you,
Cos you complete my seaview

(More wailing...again using Chorus Chords)

INTRO to finish

Enjoy, I know I did...
--------------------------------------------------------------------------------


| /  slide up
| \  slide down
| h  hammer-on
| p  pull-off
| ~  vibrato
| +  harmonic
| x  Mute note
===============================================================================
Tap to rate this tab
 
# A B C D E F G H I J K L M N O P Q R S T U V W X Y Z