Song name
# A B C D E F G H I J K L M N O P Q R S T U V W X Y Z

Misc Unsigned Bands - South Park Mexican - Filthy Rich tab

this is actually done on piano but im sure you knew that
it sounds pretty close 

e |------------------------|------------------------|------------------------|
G |------------------------|------------------------|------------------------|
B |-9-----9-----9-----7--9-|-7-----7-----7-----5--7-|-5-----5-----5-----3--5-|
D |----7-----7----10-------|----5-----5-----8-------|----3-----3-----6-------|
A |------------------------|------------------------|------------------------|
E |------------------------|------------------------|------------------------| 

e |------------------------| 
G |------------------------|
B |-3-----3-----3-----1--3-|
D |----1-----1-----4-------|
A |------------------------|
E |------------------------|
Tap to rate this tab
 
# A B C D E F G H I J K L M N O P Q R S T U V W X Y Z