Song name
# A B C D E F G H I J K L M N O P Q R S T U V W X Y Z

Misc Unsigned Bands - Edelene - Mental tab

artist:edelene
title: mental
album: Unreleased
tabbed by:crakillz

comments- real easy song and fun 2 play on acoustic. this is just the basic but feel 
2 play around with it
. 100% accurate

e|-------------------------------------------------------------------------|
B|-------------------------------------------------------------------------|
G|-------------------------------------------------------------------------|
D|-------------------------------------------------------------------------|
A|-------------------------------------------------------------------------|
E|-0---12-9------0--12-9-12-9----0-0--12-9-12-9-0-0--12-9-12-9-9-7-5-7-9---|
           (x4)
G|-------------------------------------------------------------------------|
D|-------------------------------------------------------------------------|
A|-------------------------------------------------------------------------|
E|-0--12-9-12-9----0-0--12-9-12-9-0-0--12-9-12-9----0-0--12-9-12-9-7-9-12-9|

e|-------------------------------------------------------------------------|
B|-------------------------------------------------------------------------|
G|-------------------------------------------------------------------------|
D|-------------------------------------------------------------------------|
A|-------------------------------------------------------------------------|
E|-9-9-7-5-7-9--0-0--12-9-12-9-0-0--12-9-12-9------------------------------|
               (x2)
e|-------------------------------------------------------------------------|
B|-------------------------------------------------------------------------|
G|-------------------------------------------------------------------------|
D|-------------------------------------------------------------------------|
A|-------------------------------------------------------------------------|
E|-9-9-7-5-7-9--0-0--12-9-12-9-0-0--12-9-12-9-9-7-5-3-2-0------------------|

e|-------------------------------------------------------------------------|
B|-------------------------------------------------------------------------|
G|-------------------------------------------------------------------------|
D|-------------------------------------------------------------------------|
A|-------------------------------------------------------------------------|
E|-9--7-5-3-7-5-3--9---9-7-5-3-1-0-----------------------------------------|
(play each note 8x)    (play only once)

e|-------------------------------------------------------------------------|
B|-------------------------------------------------------------------------|
G|-------------------------------------------------------------------------|
D|-------------------------------------------------------------------------|
A|-------------------------------------------------------------------------|
E|-9-9-7-5-7-9--0-0--12-9-12-9-0-0--12-9-12-9-9-7-5-3-2-0------------------|
(x2)

If u liked the tab plz support

freemediastream.co.nr
Tap to rate this tab
 
# A B C D E F G H I J K L M N O P Q R S T U V W X Y Z