Song name
# A B C D E F G H I J K L M N O P Q R S T U V W X Y Z

Misc Unsigned Bands - Wei Lan - In Love Again tab

In Love Again
Wei Lan
Tabbed by milhaidabo

Capo on 2nd fret

Intro:
E|----------|-------|-------------------|-------------|
B|----------|-5-----|------2--------4---|-----5---5---|
G|--2----4--|-5-----|------2--------4---|-----5---5---|
D|--2----4--|-5-----|----2--------4-----|---5-----5---|
A|----------|-------|-------------------|-------------|
E|--2----4--|-5-----|--2-----2--4-----4-|-5-----5-----|


Verse:
E|----------0-------|---------------|-----------0---------|----------5--2-----|
B|------------0-----|----------2--4-|--------------0------|-----5----5----4---|
G|------1-------1---|-----1----1--4-|------2---------2----|---2---------------|
D|----2-------------|---2------2----|----2----------------|-------------------|
A|------------------|-0-----0-------|---------------------|-2-----2---------2-|
E|--0-----0-------0-|-------------4-|--2-----2----------2-|-------------------|

E|----------0-------|---------------|------------------|--2--2X--2-2-X2--|
B|------------0-----|----------2--4-|------------5--4--|--3--3X--3-3-X3--|
G|------1-------1---|-----1----1--4-|------2-----2--2--|--2--2X--2-2-X2--|
D|----2-------------|---2------2----|----2-------------|-----------------|
A|------------------|-0-----0-------|------------2-----|-----------------|
E|--0-----0-------0-|-------------4-|--2-----2---------|--0------0-----0S|


chorus:
E|-----9---7--7---|--------------8-|----------5-2---|------------------|-----0----0--|
B|-----9---8--8---|-----4-----7--6-|----------5--4--|------------------|----------1--|
G|-----9---8--8---|-----4-----4----|-----2----2---4-|-----1------2---4-|---2------2--|
D|---7-----7--7---|---4------------|---2------------|---2--------4---6-|-------------|
A|-0-----0------0-|-----------4----|----------2-----|------------------|-0------0----|
E|----------------|-4------4-------|-2-----2--------|-0-----0--2---4---|-------------|

----------2-4-0--|
-----4----0---0--|
-----4-----------|
---4-------------|
----------4------|
-4------4--------|


E|---------0--------------------|
B|-----------0-----------5---4--|
G|-----2-------2-------2-----2--|
D|---2--------------------------|
A|-------------------2-----2----|
E|-2-----2--------2-------------|


Intro2:
E|----------0-------|---------0--------|-----------0--------|-----------7p5-5-|
B|------------0-----|-----------0------|-------------0------|-0--1------5---5-|
G|------1-------1---|-----2-------2----|-----4--------------|-0---2-----5---5-|
D|----2-------------|---2--------------|---4----------------|-2---------5-----|
A|------------------|------------------|--------------------|-0-------0-------|
E|--0-----0-------0-|-2-----2--------2-|-4------4---------4-|-----------------|


Verse2:
E|----------0-------|----------4------|----------0--------|------------2---|
B|------------0-----|------------5----|------------0------|-----5---4----4-|
G|------1-------1---|-2-4--4----------|-----2--------2----|---2-----2------|
D|----2-------------|-2-4--4----------|---2---------------|----------------|
A|------------------|-----------------|-------------------|-2-----2--------|
E|--0-----0-------0-|-2-4--4--------4s|-2-----2---------2-|----------------|

E|----------0-------|------0---4------|-----------------|--2--2X--2-2-X2--|
B|------------0-----|------0-----5----|------------5--4-|--3--3X--3-3-X3--|
G|------1-------1---|-2-4--4----------|-----2------2--2-|--2--2X--2-2-X2--|
D|----2-------------|-2-4--4----------|---2--------2--2-|-----------------|
A|------------------|-----------------|------------2----|-----------------|
E|--0-----0-------0-|-2-4--4--------4s|-2-----2---------|--0------0-----0S|


chorus:
E|-----9---7--7---|-------------4---4-|------------2---2-|------------------|-----0----0--|
B|-----9---8--8---|-----4-----7---6---|----------5---4---|------------------|----------1--|
G|-----9---8--8---|-----4-----4---4---|-----2----2---2---|-----1------2---4-|---2------2--|
D|---7-----7--7---|---4---------------|---2--------------|---2--------4---6-|-------------|
A|-0-----0------0-|-----------4-------|----------2-------|------------------|-0------0----|
E|----------------|-4------4----------|-2-----2----------|-0-----0--2---4---|-------------|

----------0---|
----------0---|
-----4--------|
---4----------|
----------4---|
-4------4-----|

E|---------0--------------------|
B|-----------0-----------5---4--|
G|-----2-------2-------2-----2--|
D|---2--------------------------|
A|-------------------2-----2----|
E|-2-----2--------2-------------|


E|-------------0---4----|
B|-------0-------0------|
G|-------1--------------|
D|----2-----------------|
A|----------------------|
E|-0--------0---------0-|


chorus:
E|-----9---7--7---|---------------4---|------------2---2-|------------------|-----0----0--|
B|-----9---8--8---|-----4-----7-------|----------5---4---|------------------|----------1--|
G|-----9---8--8---|-----4-----4-------|-----2----2---2---|-----1------2---4-|---2------2--|
D|---7-----7--7---|---4---------------|---2--------------|---2--------4---6-|-------------|
A|-0-----0------0-|-----------4-4---4-|----------2-------|------------------|-0------0----|
E|----------------|-4------4----------|-2-----2----------|-0-----0--2---4---|-------------|

----------0---|
-----4----0---|
-----4--------|
---4----------|
----------4---|
-4------4-----|

E|---------0--------------------|
B|-----------0-----------5---4--|
G|-----2-------2-------2-----2--|
D|---2--------------------------|
A|-------------------2-----2----|
E|-2-----2--------2-------------|


Ending:
E|-----------------0---------------|
B|------0----------------0---------|
G|------1----1h2----------2----1---|
D|---2-------------------------2---|
A|-----------------------------2---|
E|-0------0------0----------0--0---|
Tap to rate this tab
 
# A B C D E F G H I J K L M N O P Q R S T U V W X Y Z