Guitaretab - guitar tabs
Song name
# A B C D E F G H I J K L M N O P Q R S T U V W X Y Z

Misc Unsigned Bands - Tok - Footprints tab

Highlighted       Show chord diagrams
check out the band on www.amazon.com/Language-T-O-K/dp/B0009KFDU8 - 273k
This my rendition of this ever popular reggae tune by T.O.K Ė Footprints. Listen to the
for timing and strumming in case any difficulties playing it. Enjoy, the song can be
on the DROP LEAF RIDDIM ALDUM with a couple of the other songs with the same rhythm and 
progressions thatís how reggae is these days they share RIDDIMS. So basically the
is the ARTIST these days.

.CHORDS USED:   Dm        A#         C           Am         Gm
              e-1--------------------------------------------3----------|
              B-3---------3----------1-----------1-----------3----------|
              G-2---------3----------------------2-----------3----------|
              D-----------3----------2-----------2-----------5----------|
              A-----------1----------3-----------------------5----------|
              E----------------------------------------------3----------|
CHORD PROGRESSIONS: Dm   A#    C    Am
    Gm   Am (run through entire song)
[ Tab from: http://www.guitaretab.com/m/misc-unsigned-bands/114974.html ]
Dm             A#                C                 Am          A#            Gm        Am
(Alex)
High   high    high   high    high     high    high    aaaaaaaaaahhhh
e-5-5--7------------5-5--------5-5--7-7--7--5----------------------------------|
B--------8-8--7--5-------8-7-5-----------------8--5----------------------------|
G------------------------------------------------------------------------------|
D------------------------------------------------------------------------------|
A------------------------------------------------------------------------------|
E------------------------------------------------------------------------------|
(Craigy T) raps or chants SUNG UNDER INTRO RIFF.
One set of footprints inna di sand and yuh a grumble and a screw a seh it shoulda be two
one thing mi youth a Father God have the plan so when you see one set of footprints a
carry you
Dm                A#                C                 Am              A#         Gm        Am
1 verse (Flexx)
Hurry up and come back was the last thing she said to her son the day his life was taken
she did not know he wouldnít come back he died from the bullet of a gun and now her 
boy is gone
(Alex)
She said help me, Lord help me and when she looked up to the sky and she heard a voice reply
Chorus
When you cry, I cry I cry along with you, When you smile I smile, I smile along with you
When you cry, I cry I cry along with you, When you smile I smile, I smile along with you
 2 verse (Flexx)
Another baby left homeless
abandoned when he was two so the street side kids at the shopping mall was the family he
it's not easy being homeless sometimes you have to do what you what you have to do and
didnít have a mom or dad to help him get through
(Alex)
He said help me, Father help me
and then he looked up to the sky and he heard a voice reply
Chorus
3 verse (Bay-C) raps or chants
This anna  true story, my condolences keep ya head up
It was early Sunday morning mi get up a watch the news then mi hear seh friday a seaview
kill a youth den mamma tell mi seh her church sister Jacqueline just loose her brother
seaview gardens when she tell mi jah jah know ti mash mi up naah tell nuh lie but yuh 
seh man a thuggish so yuh naah go see me cry everyday and every night she still a ask
father why her brother had to die she heard a voice reply

Chorus
Related for Tok - Footprints tab