Misc Unsigned Bands - Da Cop Cars - My Heart Will Go On tab

This is my rendidtion of the Theme from Titanic.
Its a mixture of a few parts/songs in the movie with the intro and outro paying tribute 
the ships band.
It looks long but many of the parts are repeated with just a slight difference in 
it.
Mess around with the effects on you amp to make different sounds.
To see the video to the tab performed by Da Cop Car go to
http://www.youtube.com/watch?v=_eDD9wGunoI

Most of all have fun.....and the ladies will love it.

Standard tuning.

Part I
|-7--5--3--3----------3--7--5--|
|-------------5-5--3-----------|
|------------------------------|
|------------------------------|
|------------------------------|
|------------------------------|

|-7--5--3--3----------3--2--5--3--|
|-------------5-5--3--------------|
|---------------------------------|
|---------------------------------|
|---------------------------------|
|---------------------------------|

|-10--12--10-10------10--|
|----------------12------|
|------------------------|
|------------------------|
|------------------------|
|------------------------|

|-10--12--10-10----------|
|----------------12--10--|
|------------------------|
|------------------------|
|------------------------|
|------------------------|

|-7--5--3--3----------3--2--5--3--|
|-------------5-5--3--------------|
|---------------------------------|
|---------------------------------|
|---------------------------------|
|---------------------------------|

Part II
|-----------------------------------------------|
|----7--7h9--9--7--6-6--7--12--9--7--5--2--2p0--|
|-9---------------------------------------------|
|-----------------------------------------------|
|-----------------------------------------------|
|-----------------------------------------------|

|--------------------------------------------------|
|----7--7h9--9--7--6-6--7--12--9--12--14--12--9s7--|
|-9------------------------------------------------|
|--------------------------------------------------|
|--------------------------------------------------|
|--------------------------------------------------|

|--------9--12--14--12--9----------------------------------|
|-9--12--------------------12--9--12--14--12--12--9s7--7s9-|
|----------------------------------------------------------|
|----------------------------------------------------------|
|----------------------------------------------------------|
|----------------------------------------------------------|

Part III
|-----------------------------------------------------|
|-5--5--5--5-4-5--5-4-5--7--9--7---5--5-5--5-4-5--5p0-|
|-----------------------------------------------------| 2X
|-----------------------------------------------------|
|-----------------------------------------------------|
|-----------------------------------------------------|

|-----------------------------------------------|
|-5--7--0--12-10-9-7--9-10-9-7--5-4-5--5--2-2p0-|
|-----------------------------------------------|
|-----------------------------------------------|
|-----------------------------------------------|
|-----------------------------------------------|

|----------------------------------------------------------|
|-5--7--0--12-10-9-7--9-10-9-7--5-4-5--4-4-5--7--9--7--5-5-|
|----------------------------------------------------------|
|----------------------------------------------------------|
|----------------------------------------------------------|
|----------------------------------------------------------|

Part II again with change
|-----------------------------------------------|
|----7--7h9--9--7--6-6--7--12--9--7--5--2--2p0--|
|-9---------------------------------------------|
|-----------------------------------------------|
|-----------------------------------------------|
|-----------------------------------------------|

|------------------------------------------------------|
|----7--7h9--9--7--6-6--7--12--9--12--14--12--9s7--7s9-|
|-9----------------------------------------------------|
|------------------------------------------------------|
|------------------------------------------------------|
|------------------------------------------------------|

Part III...again with a bit change
|-0--0--0--0---0--0---0------------0--0-0--0---0--0-0-|
|-5--5--5--5-4-5--5-4-5--7--9--7---5--5-5--5-4-5--5p0-|
|-----------------------------------------------------| 2X
|-----------------------------------------------------|
|-----------------------------------------------------|
|-----------------------------------------------------|

|-----------------------------------------------|
|-5--7--0--12-10-9-7--9-10-9-7--5-4-5--5--2-2p0-|
|-----------------------------------------------|
|-----------------------------------------------|
|-----------------------------------------------|
|-----------------------------------------------|

|----------------------------------------------------------|
|-5--7--0--12-10-9-7--9-10-9-7--5-4-5--4-4-5--7--9--7--5-5-|
|----------------------------------------------------------|
|----------------------------------------------------------|
|----------------------------------------------------------|
|----------------------------------------------------------|

Part II...yet again with a bit more change

|-----------------------------------------------|
|----7--7h9--9--7--6-6--7--12--9--7--5--2--2p0--|
|-9---------------------------------------------|
|-----------------------------------------------|
|-----------------------------------------------|
|-----------------------------------------------|

|----------------------------------------------------|
|----7--7h9--9--7--6-6--7--12--9--12--14--16--17--19-|
|-9--------------------------------------------------|
|----------------------------------------------------|
|----------------------------------------------------|
|----------------------------------------------------|

Part III....second part but a string higher
|-5--7--0--12-10-9-7--9-10-9-7--5-4-5--5--2-2p0-|
|-----------------------------------------------|
|-----------------------------------------------|
|-----------------------------------------------|
|-----------------------------------------------|
|-----------------------------------------------|

|-5--7--0--12-10-9-7--9-10-9-7--5-4-5--4-4-5--7--9--7--5-5-|
|----------------------------------------------------------|
|----------------------------------------------------------|
|----------------------------------------------------------|
|----------------------------------------------------------|
|----------------------------------------------------------|

Part I just the end part
|-7--5--3--3----------3--2--5--3--|
|-------------5-5--3--------------|
|---------------------------------|
|---------------------------------|
|---------------------------------|
|---------------------------------|


*Key*

s= slide
p= pull off
h= hammer on
~= vibrato
Tap to rate this tab
 
# A B C D E F G H I J K L M N O P Q R S T U V W X Y Z