Song name
# A B C D E F G H I J K L M N O P Q R S T U V W X Y Z

Misc Unsigned Bands - Rock On - Socha Hai tab

Socha hai:Rock on:Tabbed by Nitish raj subarno.

1:guitar A
|-----------------------------------|
|-----------------------------------|
|-----------------------------------|
|-7---------------------------------|
|-5---------------------------------|
|-----3-5-7~~~---7-9-9s10--5h7-5----|
2:guitar A
|-----------------------------------|
|-----------------------------------|
|-----------------------------------|
|-7---5-7-9~~~---9-11-11s12--7h9-7--|
|-5------------------------------5--|
|-----------------------------------|

3:guitar A
SILENT

3:guitar B
|--------------------------------------------------------|
|--------------------------------------------------------|
|-7--7--7--7------7--7--7--7-----7--7--7--7---7--7--7--7-|
|--7--7--7---7-----5--5--5--5-----9--9--9--7---7--7--7-7-|
|--------------------------------------------------------|
|--------------------------------------------------------|
4:guitar A
|--------------------------------------------------------|
|--------------------------------------------------------|
|--------------------------------------------------------|
|-12~~--5-7-9~~~---9-11-11s12--7h9-7---------------------|
|--------------------------------------------------------|
|--------------------------------------------------------|
4:guitar B
REPEAT OF 3.

VERSE STARTS:

GUITAR B PLAYS THE 3RD SECTION ALL THROUGH THE VERSE.

GUITAR A PLAYS THE FOLLOWING POWER CHORDS VERY FAINTLY AUDIBLE.

D                    G
AASMA HAI NEELA KYUN PAANI GILA GILA KYUN

B                  A
GOOL KYUN HAI ZAMI..

D                      G
SILK ME HAI NARMI KYUN AAG ME HAI GARMI KYUN

B                  A 
TAARE 2 5 KYUN NAHI 

D                    G
PEED HO GAYE KM KYUN TEEN HAI YE MAUSAM KYUN

B                 A
CHAAND DO KYUN NAHI 

D                      G
DUNIA ME HAI JUNG KYUN BEHTA LAAL RANG KYUN

B                         A
SARHADE HAI KYUN HAR KAHIN



CHORUS: 

        D               G
SOCHA HAI......YE TUMNE KYA KABHI
        D                G
SOCHA HAI......KI HAI YE KYA SABHI 
        D                   G  
SOCHA HAI......SOCHA NAHI TO SOCHO ABHI.... 


BRIDGE:

|------------------------|
|------------------------|
|--7-7--7-5--------------|
|--5-5--4-5--------------|
|------------------------|
|------------------------|
        G
SANAATA SUNAI NAHI DETA

|------------------------|
|------------------------|
|--7-7------4-7----------|
|--5-5------7-7----------|
|------------------------|

           G
AUR HAVAYE DIKHAI NAHI DETI


G     A   F   G     G    A   C  D
SOCHA HAI KYA KABHI HOTA HAI YE KYUN...


GUITAR SOLO:

guitar A

|------------------------------------------------------------------|
|------------------------------------------------------------------|
|------------------------------------------------------------------|
|--7~~--7-9-4S7----7-9-4-7h9p7--4------4-------------4-------------|
|---------------------------------5--7---5s7~~---5-7---------------|
|------------------------------------------------------------------|


|------------------------------------------------------------------|
|------------------------------------------------------------------|
|------------------------------------------------------------------|
|--7~~--7-9-4S7---7-9-4-7----7-9-4-7-------------------------------|
|------------------------------------5s7~~-------------------------|
|------------------------------------------------------------------|


|-------------------------------------------------------------------|
|-----------------------------------------------------------12-15-17|
|-------------14-9-9-7~~--14-9-9-7~~----9b9--7-9----7-9-------------|
|--5s7-7-9-11-------------------------------------9-----7~~---------|
|-------------------------------------------------------------------|
|-------------------------------------------------------------------|



|-----------17~~-14-14-10~~---17~~-14-14-10~~------------|
|--------------------------------------------------------|
|--------------------------------------------------------|
|--------------------------------------------------------|
|--------------------------------------------------------|
|--------------------------------------------------------|



|--------7s10-10-12-14---17----15----14---12---12--------|
|--10-12-------------------15----15----15---15-----------|
|-------------------------------------------------7s9-7~~|
|--------------------------------------------------------|
|--------------------------------------------------------|
|--------------------------------------------------------|

DURING THE SOLO GUITAR B PLAYS:

D G B A POWER CHORDS PER PART OF THE SOLO WITH PALM MUTE QUARTER NOTES.
  
solo ends but the next section is in contuinity with the solo.


|--------------------------------------|
|--------------------------------------|
|--------------------------------------|
|--5-7-7s9~~--5-7-9-7s9-7--------------|
|--------------------------------------|
|--------------------------------------|
 
Socha hai:Rock on:Tabbed by Nitish raj subarno.
 
Tap to rate this tab
 
# A B C D E F G H I J K L M N O P Q R S T U V W X Y Z