Song name
# A B C D E F G H I J K L M N O P Q R S T U V W X Y Z

Misc Unsigned Bands - Beware - Theories Of The Wicked tab

Band Name:Beware / Devil Theory (Asylum Sixty-Sixx)
Song Name:"Theories of The Wicked"
Album Name:Theories of the Wicked / We Are, Beware!

Tabber:Toki Vengeance (Dakota Fletcher)
Tuning:Drop D (D,A,D,G,B,E)
More Info:This is not the whole song but it is a rough version of the intro and the slow 
that comes after the first guitar solo.


Intro 1:
E:---------------------------------------------------|
B:---------------------------------------------------|
G:---------------------------------------------------|
D:---------------------------------------------------|
A:-0h5h7-0h5h7-0h5h7-0h5h7---------------------------|
D:--------------------------0h5h7-0h5h7-0h5h7-0h5h7--| x4
(Still not certain on how many times the intro is repeated)


Intro 2:
E:-------------------------------------------------------------------------|
B:-------------------------------------------------------------------------|
G:-------------------------------------------------------------------------|
D:-------------------------------------------------0h5h7-0h5h7-0h5h7-0h5h7-|
A:-------------------------0h5h7-0h5h7-0h5h7-0h5h7-------------------------|
D:-0h5h7-0h5h7-0h5h7-0h5h7-------------------------------------------------|

E:----------|
B:----------|
G:-0h5h7-8--|
D:----------|
A:----------|
D:----------|
(then it goes into this)
[Intro Order: Intro 1 x4, Intro 2 x1, Intro 1 x4, Intro 2 x1]

Slow Part 1:
E:-------------------------|
B:-------------------------|
G:-0-5h7-7-5-0--0-5h7-8-7--|
D:-------------------------|
A:-------------------------|
D:-------------------------| x 2
(Second time around this is played)
E:----------------------|
B:-0-5h7-7-5-0--0-5h7-8-|
G:----------------------|
D:----------------------|
A:----------------------|
D:----------------------|


Slow Part 2:
E:-------------------------------|
B:-------------------------------|
G:--8--7--5--0--5--0--8---7---5--|
D:-------------------------------|
A:-------------------------------|
D:-------------------------------|
  ~~~~~~~~~~~~~~~~~~~~~~~~~~~~~~~
(~ = Whammey)
[Slow Part Order: SP 1 x2, SP 2 x4, SP 1 x4]
Tap to rate this tab
# A B C D E F G H I J K L M N O P Q R S T U V W X Y Z