Song name
# A B C D E F G H I J K L M N O P Q R S T U V W X Y Z

Misc Unsigned Bands - The Snake Trap - Hiroshis Ebay Bike tab

THINER STRING-------------------------------------------------------------|-
--------------------------------------------------------------------------|-
--------------------------------------------------------------------------|-
---------------------------2----------------------------------------------|-
--------------3-3-3-3-3-3----3-3-3-3-3-3--5--3-3-3-3-3-3-----2--3SLIDETO5-3-2|-
FATER STRING----------------------------------------------3---------------|-


THINER STRING-------------------------------------------------------------|-
--------------------------------------------------------------------------|-
--------------------------------------------------------------------------|-
--------3-5-3-0---0-3-0-------------------------3-5-3-0----5--3--0--------|-
--3-0-3---------3-------3-2-3--3-5-3-0-3--0-3-0----------3----------3--2--|-
Tap to rate this tab
 
# A B C D E F G H I J K L M N O P Q R S T U V W X Y Z