Song name
# A B C D E F G H I J K L M N O P Q R S T U V W X Y Z

Misc Unsigned Bands - Beware - Roses Are Red Violets Are Blue I Will Put A Curse Onto You tab

Song Name:"Roses Are Red, Violets Are Blue, I Will Put A Curse Onto You"
Band Name:Beware / Devil Theory
Album Name:Theories of the Wicked

Tabber:Toki Vengeance (Dakota Fletcher)
Tuning:Drop D, 6 Drop C (D,A,D,G,B,C)
More Info:


Intro 1:
C:------0---0-----------0---0---------0---0-----|
B:----0---------0-----0-------------0---------0-|
G:------------------------------0---------------|
D:----------------------------------------------|
A:----------------------------------------------|
D:--0-----0---0---0-0-----0---0---0-----0---0---|


Intro 2:
C:-------0-----0---------0-----0------|
B:------------------------------------|
G:-----0-----0-----0---0-----0-----0--|
D:------------------------------------|
A:------------------------------------|
D:-0-0-----0-----0---0-----0-----0----|


Order:
Intro 1
Intro 2
Intro 1 x 3
Intro 2
Tap to rate this tab
# A B C D E F G H I J K L M N O P Q R S T U V W X Y Z