Guitaretab - guitar tabs
Song name
# A B C D E F G H I J K L M N O P Q R S T U V W X Y Z

Misc Unsigned Bands - Beware - Halloween tab

Song Name:"Halloween"
Band Name:Beware / Devil Theory
Album Name:Theories of The Wicked

Tabber:Toki Vengeance (Dakota Fletcher)
Tuning:Drop D (D,A,D,G,B,E)/ Drop D (D,A,D,G)
More Info:This Tab includes the tabs for the guitar and the bass from the Intro to up 
the in of Verse 1.


Intro:(Guitar)
E:--------------------------------|
B:--------------------------------|
G:--------------------------------|
D:--------------------------------|
A:--------------------------------|
D:--------------------------------|

Intro:(Bass)
G:-------------------------------------------------------------------------|
D:-------------------------------------------------------------------------|
A:-------------------------------------------------------------------------|
D:-0-00--0-00--0-00--0-00--3-33--3-33--3-33--3-33--5-55--5-55--5-55--5-55--|
[ Tab from: http://www.guitaretab.com/m/misc-unsigned-bands/115060.html ]
Intro 2:(Guitar)
E:-------------------------------------------------------------------------|
B:-------------------------------------------------------------------------|
G:-------------------------------------------------------------------------|
D:-0-----0-----0-----0-----3-----3-----3-----3-----5-----5-----5-----5-----|
A:-0-----0-----0-----0-----3-----3-----3-----3-----5-----5-----5-----5-----|
D:-0-----0-----0-----0-----3-----3-----3-----3-----5-----5-----5-----5-----|


Break Down:(Guitar)
E:--------------------------|
B:--------------------------|
G:--------------------------|
D:--0--3--5--3--0-----------|
A:--0--3--5--3--0-----------|
D:--0--3--5--3--0-----------|

Break Down:(Bass)
G:--------------------------|
D:--------------------------|
A:--------------------------|
D:--0--3--5--3--0-00--0-00--|


Verse 1:(Guitar)
E:--------------------------|
B:--------------------------|
G:-9------9-7------7-5------|
D:-9------9-7------7-5------|
A:-7------7-5------5-3------|
D:-7------7-5------5-3------|

Verse 1:(Bass)
G:---------------------------|
D:---------------------------|
A:---------------------------|
D:-7-7--7-7-5-5---5-5-3-3--3-|


Build-Up Riff:(Guitar)
E:--------------|
B:--------------|
G:-7--9--11-11--|
D:-7--9--11-11--|
A:-5--7---9--9--|
D:-5--7---9--9--|

Build-Up Riff:(Bass)
G:--------------|
D:-------11-11--|
A:----7---------|
D:-5------------|


Order:(Guitar)
Intro 1        x2
Intro 2        x1
Break Down     x1
Verse 1        x1
Build-Up Riff  x1
Verse 1        x1
Build-Up Riff  x1

Order:(Bass)
Intro          x1
Break Down     x1
Intro          x1
Break Down     x1
Verse 1        x1
Build-Up Riff  x1
Verse 1        x1
Build-Up Riff  x1
Related for Beware - Halloween tab
Advertisement will be closed in 10 seconds