Song name
# A B C D E F G H I J K L M N O P Q R S T U V W X Y Z

Misc Unsigned Bands - Beware - Devil Snake tab

Song Name:"Devil Snake"
Band Name:Beware / Devil Theory
Album Name:Theories of The Wicked

Tabber:Toki Vengeance (Dakota Fletcher)
Tuning:Drop D (D,A,D,G,B,E)
More Info:This is not the complete tabs for this song, they only go to the end of the first verse.


Intro 1:
E:------------------------------------------|
B:------------------------------------------|
G:------------------------------------------|
D:-9-9-9-x-x-x-9-12-9-x-x-x-9-9-9-x-x-7--5--|
A:-9-9-9-x-x-x-9-12-9-x-x-x-9-9-9-x-x-7--5--|
D:-9-9-9-x-x-x-9-12-9-x-x-x-9-9-9-x-x-7--5--|


Verse:
E:------------------------------------------------|
B:------------------------------------------------|
G:------------------------------------------------|
D:-9-9-9-9-9-9-12--9-9-9-9-9-9-7--9-9-9-9-9-9-12--|
A:-9-9-9-9-9-9-12--9-9-9-9-9-9-7--9-9-9-9-9-9-12--|
D:-9-9-9-9-9-9-12--9-9-9-9-9-9-7--9-9-9-9-9-9-12--|


Guitar Riff 1:
E:------------|
B:------------|
G:------------|
D:-9-12-9-12--|
A:-9-12-9-12--|
D:-9-12-9-12--|


Order:
Intro x4
Verse
Guitar Riff 1
Verse
Guitar Riff 1
Tap to rate this tab
# A B C D E F G H I J K L M N O P Q R S T U V W X Y Z