Song name
# A B C D E F G H I J K L M N O P Q R S T U V W X Y Z

Misc Unsigned Bands - Miracle Fortress - Next Train tab

Title:  'Next Train'
Artist: Miracle Fortress (http://www.myspace.com/miraclefortress)
Album:  Five Roses
Tabbed by L. Hua (turboviet.com)

Tunning : EADGAD
Capo on 2nd fret


D -----------------------------------------------------------------------------|
A --------0------------------0-------------------0-------------------0---------|
G ------2---2---2---------0----0---0----------0----0---0----------0----0---0---|
D ----0-------0--------0-------------------0-------------------0---------------|
A --0--------------0h2-----------2-----0h2-----------2-----0h2-----------2-----|
E -----------------------------------------------------------------------------|


D 0--0--0--0--0--0--0--0--0--0--0--0--0--0--0--0--0--0--0--0--0--0--0--0--0--0--0--0--0--0--0--0|
A 0--0--0--0--0--0--0--0--0--0--0--0--0--0--0--0--0--0--0--0--0--0--0--0--0--0--0--0--0--0--0--0|
G 0--0--0--0--0--0--0--0--0--0--0--0--0--0--0--0--0--0--0--0--0--0--0--0--0--0--0--0--0--0--0--0|
D 5--5--5--5--4--4--4--4--2--2--2--2--0--0--0--0--0--0--0--0--0--0--0--0--0--0--0--0--0--0--0--0|
A ------------------------------------5--5--5--5--2--2--2--2--5--5--5--5--0--0--0--0--0--0--0--0|
E ------------------------------------------------------------------------5--5--5--5--5--5--5--5|


......

D --0--0--0--0--0--0--0---|
A --0--0--0--0--0--0--0---|
G --0--0--0--0--0--0--0---|
D --7--7--7--9--9--7--7---|
A ------------------------|
E ------------------------|
Tap to rate this tab
# A B C D E F G H I J K L M N O P Q R S T U V W X Y Z