Song name
# A B C D E F G H I J K L M N O P Q R S T U V W X Y Z

Misc Unsigned Bands - The Critical Masses - Rocker Life tab

----------------------------------------------------------------------------
         Rocker Life(Tribute to tired Rockers) - The Critical Masses
----------------------------------------------------------------------------

Tabbed by: hulkthebassist
email: chevyredneck1991@gmail.com

Tuning: Standard (eBGDAE)

Intro:
e-------5-7-7-5-------    --------------------------|
B----5-7-------7-5----    --------------------------|
G-4-7-------------7-4-(x2)--------9-11-11-9---------|
D---------------------    ----9-11---------11-9-----|(x2)
A---------------------    9-12-----------------12-9-|
E---------------------    --------------------------|

e--------3-5-5-3------    --------------------------------|
B-----3-5-------5-3---    --------------------------------|
G-2-5--------------5-2(x2)----------10-12-12-10-----------|
D---------------------    -----10-12-----------12-10------|(x2)
A---------------------    10-13---------------------13-10-|
E---------------------    --------------------------------|

Verse:
e---------------------|
B---------------------|
G---------------------|
D-9-x8-7-x8-9-x8-5-x8-|
A-9----7----9----5----|
E-7----5----7----3----|
PM*    *    *    *


Chorus:
e---------------------|
B---------------------|
G---------------------|
D-9-9-9-4-4-7-7-5-5-5-|
A-9-9-9-4-4-7-7-5-5-5-|
E-7-7-7-2-2-5-5-3-3-3-|


Bridge:
e-------------------------------------------------|
B-------------------------------------------------|
G-9-----------7-----------5-----------4-----------|
D-9-9-9-9-9-9-7-7-7-7-7-7-5-5-5-5-5-5-4-4-4-4-4-4-|
A-7-9-9-9-9-9-5-7-7-7-7-7-3-5-5-5-5-5-2-4-4-4-4-4-|
E---7-7-7-7-7---5-5-5-5-5---3-3-3-3-3---2-2-2-2-2-|

Order:
Intro(x2)
verse(x4)
chorus(x5)
Intro(x2)
verse(x4)
chorus(x5)
Intro(x2)
Bridge(x8)
Chorus(x5)
Intro(x2)
Tap to rate this tab
 
# A B C D E F G H I J K L M N O P Q R S T U V W X Y Z