Guitaretab - guitar tabs
Song name
# A B C D E F G H I J K L M N O P Q R S T U V W X Y Z

Misc Unsigned Bands - Belie My Burial - Finish Him tab

Hey guys, this is a tab for the new Belie My Burial track Finish Him.
It's a killer tune and really different from their old stuff so go ahead and critique 
gimme your oppinion.

I'm not quite sure what tune its in but it could be anything from Drop D to Drop C.  For 
tab in particular I chose Drop D.

This is just a roughie, feel free to send me your opinions.


-------------------------------------------------------------------------------
			     Finish Him - Belie My Burial
-------------------------------------------------------------------------------
Tabbed by: Jamie MacDonald
Email:jaybot@hotmail.com

Tuning: Drop D

e|---------------------------------------------------------------------------|
B|---------------------------------------------------------------------------|
G|---------------------------------------------------------------------------|
D|-----------------------2---0-----------------------------------------------|
A|44776633-44776633------2---0-----------------------------------------------|
D|-----------------------2---0-----------------------------------------------|
[ Tab from: http://www.guitaretab.com/m/misc-unsigned-bands/115090.html ]
e|---------------------------------------------------------------------------|
B|---------------------------------------------------------------------------|
G|---------------------------------------------------------------------------|
D|-2~---xxx-xxx-xxx---2----xxx-xxx------------xxx-xxx-xxx--------------------|
A|-4~---xxx-xxx-xxx---4----xxx-xxx---4h7-6p3--xxx-xxx-xxx--------------------|
D|------xxx-xxx-xxx--------xxx-xxx------------xxx-xxx-xxx--------------------|

e|-----------------|
B|-----------------|
G|-------------4*--|
D|--6~--4h6p4------|
A|-----------------|
D|-----------------|

e|-----------------------------------------------------------------------------|
B|-----------------------------------------------------------------------------|
G|-----------------------------------------------------------------------------|
D|-2~---xxx-xxx-xxx---2----xxx-xxx------------xxx-xxx-xxx----------------------|
A|-4~---xxx-xxx-xxx---4----xxx-xxx---4h7-6p3--xxx-xxx-xxx----------------------|
D|------xxx-xxx-xxx--------xxx-xxx------------xxx-xxx-xxx----------------------|

e|-------------------------------|
B|-------------------------------|
G|-------------------------------|
D|-2---21--0-------0-------------|
A|-2-------0---4---0----0--------|
D|-2-------0-------0------2------|

That's all she wrote folks, again, a quick little experiment but it sounds good to me, 
me what you think.

| /  slide up
| \  slide down
| h  hammer-on
| p  pull-off
| ~  vibrato
| +  harmonic
| x  Mute note
===============================================================================
Related for Belie My Burial - Finish Him tab
Advertisement will be closed in 10 seconds