Song name
# A B C D E F G H I J K L M N O P Q R S T U V W X Y Z

Misc Unsigned Bands - Beware - Graveyard Is For The Dead tab

Song Name:"Graveyard is For The Dead"
Band Name:Beware / Devil Theory
Album Name:Theories of The Wicked, Disc 2

Tabber:Toki Vengeance (Dakota Fletcher)
Tuning:Standard (E,A,D,G,B,E)
More Info:This tab also includes the lyrics to the song which means that 
the whole order of the song will be written out.Also each line of lyrics 
goes with one line of guitar.


Intro:(Guitar)
E:----------------------------------------|
B:----------------------------------------|
G:----------------------------------------|
D:-5-5-5-5--7-7-7-7--9-9-9-9--2--2--2--2--|
A:-5-5-5-5--7-7-7-7--9-9-9-9--2--2--2--2--|
E:-3-3-3-3--5-5-5-5--7-7-7-7--0--0--0--0--|  x2

Intro:(Lyrics)
Don't Run, Don't Scream, Don't Hide
Don't Come, Don't Enyter You'll Die


Verse 1:(Guitar)
E:---------------------------------|
B:---------------------------------|
G:--------------------------9--11--|
D:-2-2-2-2-2-2-2-2-2-2-2-2--9--11--|
A:-2-2-2-2-2-2-2-2-2-2-2-2--7---9--|
E:-0-0-0-0-0-0-0-0-0-0-0-0---------|  x6

Verse 1:(Lyrics)
--------
--------
The graveyard is how you left it
Hanging on at the brink of death
You'll find skeletal remains
Coming up from underneath


Chorus:(Guitar)
E:----------------------------------------------|
B:----------------------------------------------|
G:-7-7-7-7--9-9-9-9--7-7-7-7--------------------|
D:-7-7-7-7--9-9-9-9--7-7-7-7--2-2-2-2-2-2-2-2---|
A:-5-5-5-5--7-7-7-7--5-5-5-5--2-2-2-2-2-2-2-2---|
E:----------------------------0-0-0-0-0-0-0-0---|  x3
    [thrid time play the .'s]         . . . .
E:----------------------------------------------|
B:----------------------------------------------|
G:-7-7-7-7--9-9-9-9--7-7-7-7--------------------|
D:-7-7-7-7--9-9-9-9--7-7-7-7--------------------|
A:-5-5-5-5--7-7-7-7--5-5-5-5--------------------|
E:----------------------------------------------|  x1

Chorus:(Lyrics)
(Whoh,Whoh,Oh) The graveyard is for the dead
(Whoh,Whoh,Oh) Get this through your head
(Whoh,Whoh,Oh) I have this feeling
(Whoh,Whoh,Oh) Don't mess with the dead


Verse 2:(Guitar)
E:---------------------------------|
B:---------------------------------|
G:--------------------------9--11--|
D:-2-2-2-2-2-2-2-2-2-2-2-2--9--11--|
A:-2-2-2-2-2-2-2-2-2-2-2-2--7---9--|
E:-0-0-0-0-0-0-0-0-0-0-0-0---------|  x6

Verse 2:(Lyrics)
--------
--------
Kicking over tombstones
Stepping on their backs
The only solution
Is what the living lack


Guitar Solo:
E:--7h8-7h8-7h8-7h8-7h8--7--9--|
B:-----------------------------|
G:-----------------------------|
D:-----------------------------|
A:-----------------------------|
E:-----------------------------|  x2

E:-7-7-7-7-7-7-9-9-9-9-9-9--|
B:-7-7-7-7-7-7-9-9-9-9-9-9--|
G:-5-5-5-5-5-5-7-7-7-7-7-7--|
D:--------------------------|
A:--------------------------|
E:--------------------------|  x1


Chorus:(Guitar)
E:----------------------------------------------|
B:----------------------------------------------|
G:-7-7-7-7--9-9-9-9--7-7-7-7--------------------|
D:-7-7-7-7--9-9-9-9--7-7-7-7--2-2-2-2-2-2-2-2---|
A:-5-5-5-5--7-7-7-7--5-5-5-5--2-2-2-2-2-2-2-2---|
E:----------------------------0-0-0-0-0-0-0-0---|  x3
    [thrid time play the .'s]         . . . .
E:----------------------------------------------|
B:----------------------------------------------|
G:-7-7-7-7--9-9-9-9--7-7-7-7--------------------|
D:-7-7-7-7--9-9-9-9--7-7-7-7--------------------|
A:-5-5-5-5--7-7-7-7--5-5-5-5--------------------|
E:----------------------------------------------|  x1

Chorus:(Lyrics)
(Whoh,Whoh,Oh) The graveyard is for the dead
(Whoh,Whoh,Oh) Get this through your head
(Whoh,Whoh,Oh) I have this feeling
(Whoh,Whoh,Oh) Don't mess with the dead


Outro:(Guitar)
E:----------------------------------------------|
B:----------------------------------------------|
G:-7-7-7-7--9-9-9-9--7-7-7-7--------------------|
D:-7-7-7-7--9-9-9-9--7-7-7-7--2-2-2-2-2-2-2-2---|
A:-5-5-5-5--7-7-7-7--5-5-5-5--2-2-2-2-2-2-2-2---|
E:----------------------------0-0-0-0-0-0-0-0---|  x2

E:----------------------------------------------|
B:----------------------------------------------|
G:-7-7-7-7--9-9-9-9--7-7-7-7--------------------|
D:-7-7-7-7--9-9-9-9--7-7-7-7--------------------|
A:-5-5-5-5--9-9-9-9--7-7-7-7--------------------|
E:----------------------------------------------|  x1

E:-----------------------------------------------------------|
B:-----------------------------------------------------------|
G:-7--------2------------------------------------------------|
D:-7--------2--------2------------2-2-2-2-2-2-2-2-2-2--2--0--|
A:-5--------0--------2------------2-2-2-2-2-2-2-2-2-2--2--0--|
E:-------------------0------------0-0-0-0-0-0-0-0-0-0--0--0--|  x1

Outro:(Lyrics)
(Whoh,Whoh,Oh) The graveyard is for the
(Whoh,Whoh,Oh) Get this through your
(Whoh,Whoh,Oh) I have a feeling
(Whoh,Whoh,Oh) That the graveyard is for the dead................

Tap to rate this tab
 
# A B C D E F G H I J K L M N O P Q R S T U V W X Y Z