Song name
# A B C D E F G H I J K L M N O P Q R S T U V W X Y Z

Misc Unsigned Bands - Beware - American Werewolve tab

Song Name:"American Werewolve"
Band Name:Beware / Devil Theory
Album Name:Theories of The Wicked, Disc 2

Tabber:Toki Vengeance (Dakota Fletcher)
Tuning:Drop D (D,A,D,G,B,E,)
More Info:This is the intro and verse 1 of American Werewolve



Intro:
E:-----------------------------------|
B:-----------------------------------|
G:-----------------------------------|
D:-1-2-3-0-0-0-0-0--2-1-3-0-0-0-0-0--|
A:-1-2-3-0-0-0-0-0--2-1-3-0-0-0-0-0--|
D:-1-2-3-0-0-0-0-0--2-1-3-0-0-0-0-0--|


Verse 1:
E:-----------------------------------------------|
B:-----------------------------------------------|
G:-----------------------------------------------|
D:-1-2-3-0-0-0-0-0-0-0-0--2-1-3-0-0-0-0-0-0-0-0--|
A:-1-2-3-0-0-0-0-0-0-0-0--2-1-3-0-0-0-0-0-0-0-0--|
D:-1-2-3-0-0-0-0-0-0-0-0--2-1-3-0-0-0-0-0-0-0-0--|

E:-----------------------------------------------|
B:-----------------------------------------------|
G:-----------------------------------------------|
D:-3-1-2-0-0-0-0-0-0-0-0--1-2-3-0-0-0-0-0-0-0-0--|
A:-3-1-2-0-0-0-0-0-0-0-0--1-2-3-0-0-0-0-0-0-0-0--|
D:-3-1-2-0-0-0-0-0-0-0-0--1-2-3-0-0-0-0-0-0-0-0--|


Order:
Intro   x2
Verse 1 x1
Tap to rate this tab
# A B C D E F G H I J K L M N O P Q R S T U V W X Y Z