Song name
# A B C D E F G H I J K L M N O P Q R S T U V W X Y Z

Misc Unsigned Bands - Isaryce - That Night Wind tab

That Sunday Night - BRYCE FLEMING - Isaryce


--------------------------------------------------------------------------------|
-----------15-17-15-----------15-17-15-----------15-17-15-----------15-17-15----|
--------14----------14-----14----------14--12-14----------14--12-14----------14-|
-----15-----------------15------------------------------------------------------|
--------------------------------------------------------------------------------|
--------------------------------------------------------------------------------|


----------------------------------------------------17-----------------17-------|
-----12-14-15-17-15-14--12-14-15-17-15-14--14-15-17----17-15--14-15-17----17-15-|
--------------------------------------------------------------------------------|
--------------------------------------------------------------------------------|
--------------------------------------------------------------------------------|
--------------------------------------------------------------------------------|


--------------------------------9-----7-----3--------0---------------------------|
------15-14----15-14----5h7p5-----9-----7-----3------0---------------------------|
-----------14--------14-------------9-----7-----3----0---------------------------|
---------------------------------------------------------------------------------|
---------------------------------------------------------------------------------|
---------------------------------------------------------------------------------|


-------7-----7-----5-----0--------------------7-----7-----5-----0--------------|
---------0-----0-----6-----0--------------------0-----0-----6-----0------------|
-----------0-----0------0----0--------------------0-----0-----0-----0----------|
-------------------------------------------------------------------------------|
-------------------------------------------------------------------------------|
-------------------------------------------------------------------------------|

-------7-----7-----5-----0--------------------7-----7-----5-----0--------------|
---------0-----0-----6-----0--------------------0-----0-----6-----0------------|
-----------0-----0------0----0--------------------0-----0-----0-----0----------|
-------------------------------------------------------------------------------|
-------------------------------------------------------------------------------|
-------------------------------------------------------------------------------|

-------12---------17-15--------------------------------------------------------|
----------12------17-15--13--15-14------5h7p5----------------------------------|
-------------12---17-15------------14------------------------------------------|
-------------------------------------------------------------------------------|
-------------------------------------------------------------------------------|
-------------------------------------------------------------------------------|

-------12---------17-15--------------------------------------------------------|
----------12------17-15--13--15-14------5h7p5----------------------------------|
-------------12---17-15------------14------------------------------------------|
-------------------------------------------------------------------------------|
-------------------------------------------------------------------------------|
-------------------------------------------------------------------------------|


-------7-----7-----5-----0--------------------7-----7-----5-----0--------------|
---------0-----0-----6-----0--------------------0-----0-----6-----0------------|
-----------0-----0------0----0--------------------0-----0-----0-----0----------|
-------------------------------------------------------------------------------|
-------------------------------------------------------------------------------|
-------------------------------------------------------------------------------|

-------7-----7-----5-----0--------------------7-----7-----5-----0--------------|
---------0-----0-----6-----0--------------------0-----0-----6-----0------------|
-----------0-----0------0----0--------------------0-----0-----0-----0----------|
-------------------------------------------------------------------------------|
-------------------------------------------------------------------------------|
-------------------------------------------------------------------------------|

-------12---------17-15--------------------------------------------------------|
----------12------17-15--13--15-14------5h7p5----------------------------------|
-------------12---17-15------------14------------------------------------------|
-------------------------------------------------------------------------------|
-------------------------------------------------------------------------------|
-------------------------------------------------------------------------------|

-------12---------17-15--------------------------------------------------------|
----------12------17-15--13--15-14------5h7p5----------------------------------|
-------------12---17-15------------14------------------------------------------|
-------------------------------------------------------------------------------|
-------------------------------------------------------------------------------|
-------------------------------------------------------------------------------|


--------------------------------------0-----0-----3-5--0-----0-----------------|
----------------------------------------3-5---3-5--------3-5---5-3--2----------|
--------------------------------------------------------------------2----------|
---0-0-0-0-0-0-0-0-0-0-0-0-0-0-0-0---------------------------------------------|
-------------------------------------------------------------------------------|
-------------------------------------------------------------------------------|


----0-----0-----3-5--0-----0-------------------------------------------------|
------3-5---3-5--------3-5---3-5--2/5/9/17-----------------------------------|
----------------------------------2/5/9/17-----------------------------------|
-----------------------------------------------------------------------------|
-----------------------------------------------------------------------------|
-----------------------------------------------------------------------------|

---7-9-7-9-9-11-9-11-11-7-11-7-9-7-9-7--7-9-7-9-9-11-9-11-11-7-11-7-9-7-9-7----|
-------------------------------------------------------------------------------|
-------------------------------------------------------------------------------|
-------------------------------------------------------------------------------|
-------------------------------------------------------------------------------|
-------------------------------------------------------------------------------|


---5-7-5-7-7-9-7-9-9-5-9-5-7-5-7-5---0h9-0h7-0h6-0h1h2h3-5-0-----0--------------|
-------------------------------------------------------------3-5---3-5----------|
--------------------------------------------------------------------------------|
--------------------------------------------------------------------------------|
--------------------------------------------------------------------------------|
--------------------------------------------------------------------------------|


-------12---------17-15--------------------------------------------------------|
----------12------17-15--13--15-14------5h7p5----------------------------------|
-------------12---17-15------------14------------------------------------------|
-------------------------------------------------------------------------------|
-------------------------------------------------------------------------------|
-------------------------------------------------------------------------------|

-------12---------17-15--------------------------------------------------------|
----------12------17-15--13--15-14------5h7p5----------------------------------|
-------------12---17-15------------14------------------------------------------|
-------------------------------------------------------------------------------|
-------------------------------------------------------------------------------|
-------------------------------------------------------------------------------|


-------7-----7-----5-----0--------------------7-----7-----5-----0--------------|
---------0-----0-----6-----0--------------------0-----0-----6-----0------------|
-----------0-----0------0----0--------------------0-----0-----0-----0----------|
-------------------------------------------------------------------------------|
-------------------------------------------------------------------------------|
-------------------------------------------------------------------------------|

-------7-----7-----5-----0--------------------7-----7-----5-----0--------------|
---------0-----0-----6-----0--------------------0-----0-----6-----0------------|
-----------0-----0------0----0--------------------0-----0-----0-----0----------|
-------------------------------------------------------------------------------|
-------------------------------------------------------------------------------|
-------------------------------------------------------------------------------|

-------12---------17-15--------------------------------------------------------|
----------12------17-15--13--15-14------5h7p5----------------------------------|
-------------12---17-15------------14------------------------------------------|
-------------------------------------------------------------------------------|
-------------------------------------------------------------------------------|
-------------------------------------------------------------------------------|

-------12---------17-15--------------------------------------------------------|
----------12------17-15--13--15-14------5h7p5----------------------------------|
-------------12---17-15------------14------------------------------------------|
-------------------------------------------------------------------------------|
-------------------------------------------------------------------------------|
-------------------------------------------------------------------------------|

-------7-----7-----5-----0--------------------7-----7-----5-----0--------------|
---------0-----0-----6-----0--------------------0-----0-----6-----0------------|
-----------0-----0------0----0--------------------0-----0-----0-----0----------|
-------------------------------------------------------------------------------|
-------------------------------------------------------------------------------|
-------------------------------------------------------------------------------|

------7-----5-----7-----5-----7-----5------------------------------------------|
--------0-----6-----0-----6-----0-----6-------3--------------------------------|
----------0-----0-----0-----0-----0-----0-----3--------------------------------|
-------------------------------------------------------------------------------|
-------------------------------------------------------------------------------|
-------------------------------------------------------------------------------|
Tap to rate this tab
# A B C D E F G H I J K L M N O P Q R S T U V W X Y Z