Song name
# A B C D E F G H I J K L M N O P Q R S T U V W X Y Z

Misc Unsigned Bands - The Cannon - Simple Suicidal Song tab

Tuning: Standard
Song: Simple Suicidal Song
Artist: The Cannon
Tabbed by: whoisthisagain
Comments/Questions: email tag9990@comcast.net

Key:
h - Hammer-On
(h)- Hammer-On (Parenthesis used to somewhat keep timing)

A relatively easy song to play by 


Opening/Chorus:

e-----------------------------|-------------------------------|
B-----------------------------|-------------------------------|
G-----------------------------|-------------------------------|
D-7---5---3-3-3---5-5-5-7--7-7|-7---5---3-3-3--3-3-3-333-3-3-3|
A-7---5---3-3-3---5-5-5-7--7-7|-7---5---3-3-3--3-3-3-333-3-3-3|
E-5---3---1-1-1---3-3-3-5--5-5|-5---3---1-1-1--1-1-1-111-1-1-1|

e-----------------------------|-------------------------------|
B-----------------------------|-------------------------------|
G-----------------------------|-------------------------------|
D-7---5---3-3-3---5-5-5-7--7-7|-7---5---3-3-3---3-3-3----7-7--|
A-7---5---3-3-3---5-5-5-7--7-7|-7---5---3-3-3---3-3-3----7-7--|
E-5---3---1-1-1---3-3-3-5--5-5|-5---3---1-1-1---1-1-1----5-5--|

e-----------------------------|-------------------------------|
B-----------------------------|-------------------------------|
G-----------------------------|-------------------------------|
D-7---5---3-3-3---5-5-5-7--7-7|-7---5---3-3-3--3-3-3-333-3-3-3|
A-7---5---3-3-3---5-5-5-7--7-7|-7---5---3-3-3--3-3-3-333-3-3-3|
E-5---3---1-1-1---3-3-3-5--5-5|-5---3---1-1-1--1-1-1-111-1-1-1|
 
e-----------------------------|-------------------------------|
B-----------------------------|-------------------------------|
G-----------------------------|-------------------------------|
D-7---5---3-3-3---5-5-5-7--7-7|-7---5---3-3-3---3-3-3----7-7--|
A-7---5---3-3-3---5-5-5-7--7-7|-7---5---3-3-3---3-3-3----7-7--|
E-5---3---1-1-1---3-3-3-5--5-5|-5---3---1-1-1---1-1-1----5-5--|


Verses:

e-------0-------0-------------|-------0--------0--------------|
B----3----3---3---------------|----3----3----3---3------------|
G--4--------4------4----------|--4--------4--------4----------|
D-----------------------------|-------------------------------|
A-----------------------------|-------------------------------|
E-----------------------------|-------------------------------|

e-------2-------2-------------|-------2--------2---2----------|
B----3----3---3----3----------|----3-----3---3---5------------|
G--4--------4-----------------|--4---------4------------------|
D-----------------------------|-------------------------------|
A-----------------------------|-------------------------------|
E-----------------------------|-------------------------------|

Bridge

e-----------------------------|-------------------------------|
B-9(h)7---5-5-5---7-7-7h9--9-9|-9(h)7---5-5-5--5-5-5-555-5-5-5|
G-----------------------------|-------------------------------|
D-----------------------------|-------------------------------|
A-----------------------------|-------------------------------|
E-----------------------------|-------------------------------|

e-----------------------------|-------------------------------|
B-9(h)7---5-5-5---7-7-7h9--9-9|-9(h)7---5-5-5---5-5-5----9-9--|
G-----------------------------|-------------------------------|
D-----------------------------|-------------------------------|
A-----------------------------|-------------------------------|
E-----------------------------|-------------------------------|

Solo (Not Much of One)

e-----------------------------|-------------------------------|
B-----------------------------|-------------------------------|
G-14-12-----------------------|-14-12-------------------------|
D-------14-12-----------------|-------14-12-------------------|
A--------------14-------------|--------------14--12-----------|
E-----------------------------|-------------------------------|

e-----------------------------|-------------------------------|
B-----------------------------|-------------------------------|
G-14-12-----------------------|-14-12-----------14-14---------|
D-------14-12-----------------|-------14-12-----14-14---------|
A--------------14-------------|--------------14---------------|
E-----------------------------|-------------------------------|



Outro:

e----------------------|----------------------------8-8-8-8---|
B----------------------|-------------------8-8-8-8------------|
G-14-12----------------|----------8-8-8-8---------------------|
D-------14-12----------|8-8-8-8-------------------------------|
A--------------14-12-8-|--------------------------------------|
E----------------------|--------------------------------------|

e----------------------|
B----------------------|
G----------------------|
D-3-3-3---7-7----------|
A-3-3-3---7-7----------|
E-1-1-1---5-5----------|

Order:
Chorus x1
Verse x1
Chorus x1
Verse x1
Chorus x1
Bridge x1
Solo x1
Chorus x1
Outro x1
Tap to rate this tab
# A B C D E F G H I J K L M N O P Q R S T U V W X Y Z