Song name
# A B C D E F G H I J K L M N O P Q R S T U V W X Y Z

Misc Unsigned Bands - Mediocrity - Behind The Barrel tab

Song: Behind the Barrel
Artist: Mediocrity
Album: Sub-Par EP
Tabbed by: Jon Kopatich
Tab difficulty: Novice
Tuning: Standard E

Bass tab comming soon.

Key:
~=let ring
.=palm mute
x=mute

Intro:
e --------------------------------------------------------------------|
b --------------------------------------------------------------------|
g --------------------------------------------------------------------|
d --------------------------------------------------------------------|
a --------------------------------------------------------------------|
E --------------------------------------------------------------------|

Main Refrain:
e --------------------------------------------------------------------|
b --------------------------------------------------------------------|
g -4-x-4-x-4-------------7-x-7-x-7------------------------------------|
d -4-x-4-x-4--5-x-5-x-5--7-x-7-x-7--7-x-7-x-7-------------------------| x4
a -2-x-2-x-2--5-x-5-x-5--5-x-5-x-5--7-x-7-x-7-------------------------|
E ------------3-x-3-x-3-------------5-x-5-x-5-------------------------|

Breakdown:
e --------------------------------------------------------------------|
b --------------------------------------------------------------------|
g -4~-----------------------------------------------------------------|
d -4~-----------------------------------------------------------------|
a -2~-----------------------------------------------------------------|
E --------------------------------------------------------------------|

Verse 1:
e --------------------------------------------------------------------|
b --------------------------------------------------------------------|
g -4-4-4-4-4-4-4-4-------------------7-7-7-7-7-7-7-7------------------|
d -4-4-4-4-4-4-4-4--5-5-5-5-5-5-5-5--7-7-7-7-7-7-7-7--7-7-7-7-7-7-7-7-| x4
a -2-2-2-2-2-2-2-2--5-5-5-5-5-5-5-5--5-5-5-5-5-5-5-5--7-7-7-7-7-7-7-7-|
E ------------------3-3-3-3-3-3-3-3-------------------5-5-5-5-5-5-5-5-|
   . . . . . . . .  . . . . . . . .  . . . . . . . .  . . . . . . . .
Main Refrain:
e --------------------------------------------------------------------|
b --------------------------------------------------------------------|
g -4-x-4-x-4-------------7-x-7-x-7------------------------------------|
d -4-x-4-x-4--5-x-5-x-5--7-x-7-x-7--7-x-7-x-7-------------------------| x4
a -2-x-2-x-2--5-x-5-x-5--5-x-5-x-5--7-x-7-x-7-------------------------|
E ------------3-x-3-x-3-------------5-x-5-x-5-------------------------|

Verse 2:
e --------------------------------------------------------------------|
b --------------------------------------------------------------------|
g -4-4-4-4-4-4-4-4-------------------7-7-7-7-7-7-7-7------------------|
d -4-4-4-4-4-4-4-4--5-5-5-5-5-5-5-5--7-7-7-7-7-7-7-7--7-7-7-7-7-7-7-7-| x4
a -2-2-2-2-2-2-2-2--5-5-5-5-5-5-5-5--5-5-5-5-5-5-5-5--7-7-7-7-7-7-7-7-|
E ------------------3-3-3-3-3-3-3-3-------------------5-5-5-5-5-5-5-5-|
   . . . . . . . .  . . . . . . . .  . . . . . . . .  . . . . . . . .
Chorus:
e --------------------------------------------------------------------|
b --------------------------------------------------------------------|
g -4-4-4-4-4-4-4-4-------------------7-7-7-7-7-7-7-7------------------|
d -4-4-4-4-4-4-4-4--5-5-5-5-5-5-5-5--7-7-7-7-7-7-7-7--7-7-7-7-7-7-7-7-| x2
a -2-2-2-2-2-2-2-2--5-5-5-5-5-5-5-5--5-5-5-5-5-5-5-5--7-7-7-7-7-7-7-7-|
E ------------------3-3-3-3-3-3-3-3-------------------5-5-5-5-5-5-5-5-|

Main Refrain:
e --------------------------------------------------------------------|
b --------------------------------------------------------------------|
g -4-x-4-x-4-------------7-x-7-x-7------------------------------------|
d -4-x-4-x-4--5-x-5-x-5--7-x-7-x-7--7-x-7-x-7-------------------------| x4
a -2-x-2-x-2--5-x-5-x-5--5-x-5-x-5--7-x-7-x-7-------------------------|
E ------------3-x-3-x-3-------------5-x-5-x-5-------------------------|

Verse 3:
e --------------------------------------------------------------------|
b --------------------------------------------------------------------|
g -4-4-4-4-4-4-4-4-------------------7-7-7-7-7-7-7-7------------------|
d -4-4-4-4-4-4-4-4--5-5-5-5-5-5-5-5--7-7-7-7-7-7-7-7--7-7-7-7-7-7-7-7-| x4
a -2-2-2-2-2-2-2-2--5-5-5-5-5-5-5-5--5-5-5-5-5-5-5-5--7-7-7-7-7-7-7-7-|
E ------------------3-3-3-3-3-3-3-3-------------------5-5-5-5-5-5-5-5-|
   . . . . . . . .  . . . . . . . .  . . . . . . . .  . . . . . . . .

Chorus:
e --------------------------------------------------------------------|
b --------------------------------------------------------------------|
g -4-4-4-4-4-4-4-4-------------------7-7-7-7-7-7-7-7------------------|
d -4-4-4-4-4-4-4-4--5-5-5-5-5-5-5-5--7-7-7-7-7-7-7-7--7-7-7-7-7-7-7-7-| x2
a -2-2-2-2-2-2-2-2--5-5-5-5-5-5-5-5--5-5-5-5-5-5-5-5--7-7-7-7-7-7-7-7-|
E ------------------3-3-3-3-3-3-3-3-------------------5-5-5-5-5-5-5-5-|

Main Refrain:
e --------------------------------------------------------------------|
b --------------------------------------------------------------------|
g -4-x-4-x-4-------------7-x-7-x-7------------------------------------|
d -4-x-4-x-4--5-x-5-x-5--7-x-7-x-7--7-x-7-x-7-------------------------| x4
a -2-x-2-x-2--5-x-5-x-5--5-x-5-x-5--7-x-7-x-7-------------------------|
E ------------3-x-3-x-3-------------5-x-5-x-5-------------------------|

Outro:
e --------------------------------------------------------------------|
b --------------------------------------------------------------------|
g -4-4~-------------------------------------4-------------------------|
d -4-4~-------------------------------------4-------------------------|
a -2-2~-------------------------------------2-------------------------|
E --------------------------------------------------------------------|
Tap to rate this tab
# A B C D E F G H I J K L M N O P Q R S T U V W X Y Z