Guitaretab - guitar tabs
Song name
# A B C D E F G H I J K L M N O P Q R S T U V W X Y Z

Misc Unsigned Bands - David Homyk - All In All tab

Awesome, really easy song to play.

Intro:
e|--2-2-2-2-2--5-5-5-5-5--2-2-2-2-2--5-5-5-5-5--4------------------------------------------------|
B|--2-2-2-2-2--5-5-5-5-5--2-2-2-2-2--5-5-5-5-5--4------------------------------------------------|
G|--2-2-2-2-2--6-6-6-6-6--2-2-2-2-2--6-6-6-6-6--6------------------------------------------------|
D|--4-4-4-4-4--7-7-7-7-7--4-4-4-4-4--7-7-7-7-7--6------------------------------------------------|
A|--4-4-4-4-4--7-7-7-7-7--4-4-4-4-4--7-7-7-7-7--4------------------------------------------------|
E|--2-2-2-2-2--5-5-5-5-5--2-2-2-2-2--5-5-5-5-5---------------------------------------------------|

(Nothing played for the verses)

Broken lie, spoken once upon a time
That I told you when Iíd hold you next to me
With my pride, itís so hard I canít decided
Between the way it is and way itís supposed to be


e|--4-------------4-------------0-0-----------0----------------------------------|
B|--4-------------4-------------2-2-----------0----------------------------------|
G|--6-------------4-------------2-2-----------1----------------------------------|
D|--6-------------6-------------2-2-----------2----------------------------------|
A|--4-------------6-------------0-0-----------2----------------------------------|
E|----------------4-------------0-0-----------0----------------------------------|
            Ha-ha-ha-ha-all in all I really tried
e|--4-------------4-------------0-0-----------0----------------------------------|
B|--4-------------4-------------2-2-----------0----------------------------------|
G|--6-------------4-------------2-2-----------1----------------------------------|
D|--6-------------6-------------2-2-----------2----------------------------------|
A|--4-------------6-------------0-0-----------2----------------------------------|
E|----------------4-------------0-0-----------0----------------------------------|
            Ha-ha-ha-ha-oh but something isnít right
e|--4-------------4-------------0-0-----------0----------------------------------|
B|--4-------------4-------------2-2-----------0----------------------------------|
G|--6-------------4-------------2-2-----------1----------------------------------|
D|--6-------------6-------------2-2-----------2----------------------------------|
A|--4-------------6-------------0-0-----------2----------------------------------|
E|----------------4-------------0-0-----------0----------------------------------|
            Ha-ha-ha-ha-hold you in my arms at night
e|----------------------------2-2-2-2-2------------5-5-5-5-5----4----------------|
B|----------------------------2-2-2-2-2------------5-5-5-5-5----4----------------|
G|----------------------------2-2-2-2-2------------6-6-6-6-6----6----------------|
D|----------------------------4-4-4-4-4------------7-7-7-7-7----6----------------|
A|----------------------------4-4-4-4-4------------7-7-7-7-7----4----------------|
E|----------------------------2-2-2-2-2------------5-5-5-5-5---------------------|
            But I donít know why, no I donít know why
e|--4---------------4------0-0-------------0----------------------------------|
B|--4---------------4------2-2-------------0----------------------------------|
G|--6---------------4------2-2-------------1----------------------------------|
D|--6---------------6------2-2-------------2----------------------------------|
A|--4---------------6------0-0-------------2----------------------------------|
E|------------------4------0-0-------------0----------------------------------|
            All in all I feel you with my heart
e|-----------------------4-4--------------4------0-0------0----------------------|
B|-----------------------4-4--------------4------2-2------0----------------------|
G|-----------------------6-6--------------4------2-2------1----------------------|
D|-----------------------6-6--------------6------2-2------2----------------------|
A|-----------------------4-4--------------6------0-0------2----------------------|
E|----------------------------------------4------0-0------0----------------------|
            But I canít feel you with my soul        
e|--4---------------4------0-0-------------0----------------------------------|
B|--4---------------4------2-2-------------0----------------------------------|
G|--6---------------4------2-2-------------1----------------------------------|
D|--6---------------6------2-2-------------2----------------------------------|
A|--4---------------6------0-0-------------2----------------------------------|
E|------------------4------0-0-------------0----------------------------------|
            All in all I feel you with my heart
e|-----------------------4-4--------------4------0-0------0----------------------|
B|-----------------------4-4--------------4------2-2------0----------------------|
G|-----------------------6-6--------------4------2-2------1----------------------|
D|-----------------------6-6--------------6------2-2------2----------------------|
A|-----------------------4-4--------------6------0-0------2----------------------|
E|----------------------------------------4------0-0------0----------------------|
            But I canít feel you with my soul, No-ho-ho-ho-ho-ho-ho-ho-ho

Let you go, youíre so convenient I donít know
When I see you then I need you in my life
Broken lie, spoken once, spoken twice
But I mean it when I feel it at the time
[ Tab from: http://www.guitaretab.com/m/misc-unsigned-bands/115206.html ]
e|--4-------------4-------------0-0-----------0----------------------------------|
B|--4-------------4-------------2-2-----------0----------------------------------|
G|--6-------------4-------------2-2-----------1----------------------------------|
D|--6-------------6-------------2-2-----------2----------------------------------|
A|--4-------------6-------------0-0-----------2----------------------------------|
E|----------------4-------------0-0-----------0----------------------------------|
            Ha-ha-ha-ha-all in all I really tried
e|--4-------------4-------------0-0-----------0----------------------------------|
B|--4-------------4-------------2-2-----------0----------------------------------|
G|--6-------------4-------------2-2-----------1----------------------------------|
D|--6-------------6-------------2-2-----------2----------------------------------|
A|--4-------------6-------------0-0-----------2----------------------------------|
E|----------------4-------------0-0-----------0----------------------------------|
            Ha-ha-ha-ha-oh but something isnít right
e|--4-------------4-------------0-0-----------0----------------------------------|
B|--4-------------4-------------2-2-----------0----------------------------------|
G|--6-------------4-------------2-2-----------1----------------------------------|
D|--6-------------6-------------2-2-----------2----------------------------------|
A|--4-------------6-------------0-0-----------2----------------------------------|
E|----------------4-------------0-0-----------0----------------------------------|
            Ha-ha-ha-ha-hold you in my arms at night
e|----------------------------2-2-2-2-2------------5-5-5-5-5----4----------------|
B|----------------------------2-2-2-2-2------------5-5-5-5-5----4----------------|
G|----------------------------2-2-2-2-2------------6-6-6-6-6----6----------------|
D|----------------------------4-4-4-4-4------------7-7-7-7-7----6----------------|
A|----------------------------4-4-4-4-4------------7-7-7-7-7----4----------------|
E|----------------------------2-2-2-2-2------------5-5-5-5-5---------------------|
            But I donít know why, no I donít know why
e|--4---------------4------0-0-------------0----------------------------------|
B|--4---------------4------2-2-------------0----------------------------------|
G|--6---------------4------2-2-------------1----------------------------------|
D|--6---------------6------2-2-------------2----------------------------------|
A|--4---------------6------0-0-------------2----------------------------------|
E|------------------4------0-0-------------0----------------------------------|
            All in all I feel you with my heart
e|-----------------------4-4--------------4------0-0------0----------------------|
B|-----------------------4-4--------------4------2-2------0----------------------|
G|-----------------------6-6--------------4------2-2------1----------------------|
D|-----------------------6-6--------------6------2-2------2----------------------|
A|-----------------------4-4--------------6------0-0------2----------------------|
E|----------------------------------------4------0-0------0----------------------|
            But I canít feel you with my soul        
e|--4---------------4------0-0-------------0----------------------------------|
B|--4---------------4------2-2-------------0----------------------------------|
G|--6---------------4------2-2-------------1----------------------------------|
D|--6---------------6------2-2-------------2----------------------------------|
A|--4---------------6------0-0-------------2----------------------------------|
E|------------------4------0-0-------------0----------------------------------|
            All in all I feel you with my heart
e|-----------------------4-4--------------4------0-0------0----------------------|
B|-----------------------4-4--------------4------2-2------0----------------------|
G|-----------------------6-6--------------4------2-2------1----------------------|
D|-----------------------6-6--------------6------2-2------2----------------------|
A|-----------------------4-4--------------6------0-0------2----------------------|
E|----------------------------------------4------0-0------0----------------------|
            But I canít feel you with my soul, No-ho-ho-ho-ho-ho-ho-ho-ho

e|--4-------------4-------------0-0-----------0----------------------------------|
B|--4-------------4-------------2-2-----------0----------------------------------|
G|--6-------------4-------------2-2-----------1----------------------------------|
D|--6-------------6-------------2-2-----------2----------------------------------|
A|--4-------------6-------------0-0-----------2----------------------------------|
E|----------------4-------------0-0-----------0----------------------------------|
            Ha-ha-ha-ha-all in all I really tried
e|--4-------------4-------------0-0-----------0----------------------------------|
B|--4-------------4-------------2-2-----------0----------------------------------|
G|--6-------------4-------------2-2-----------1----------------------------------|
D|--6-------------6-------------2-2-----------2----------------------------------|
A|--4-------------6-------------0-0-----------2----------------------------------|
E|----------------4-------------0-0-----------0----------------------------------|
            Ha-ha-ha-ha-oh but something isnít right
e|--4-------------4-------------0-0-----------0----------------------------------|
B|--4-------------4-------------2-2-----------0----------------------------------|
G|--6-------------4-------------2-2-----------1----------------------------------|
D|--6-------------6-------------2-2-----------2----------------------------------|
A|--4-------------6-------------0-0-----------2----------------------------------|
E|----------------4-------------0-0-----------0----------------------------------|
            Ha-ha-ha-ha-hold you in my arms at night
e|----------------------------2-2-2-2-2------------5-5-5-5-5----4----------------|
B|----------------------------2-2-2-2-2------------5-5-5-5-5----4----------------|
G|----------------------------2-2-2-2-2------------6-6-6-6-6----6----------------|
D|----------------------------4-4-4-4-4------------7-7-7-7-7----6----------------|
A|----------------------------4-4-4-4-4------------7-7-7-7-7----4----------------|
E|----------------------------2-2-2-2-2------------5-5-5-5-5---------------------|

Girl when you remember me, remember that I tried
R.E.S.P.E.C.T., but something wasnít right
Youíve been on my mind all day and in my arms at night
But I donít know why, no I donít know why

e|--4---------------4------0-0-------------0----------------------------------|
B|--4---------------4------2-2-------------0----------------------------------|
G|--6---------------4------2-2-------------1----------------------------------|
D|--6---------------6------2-2-------------2----------------------------------|
A|--4---------------6------0-0-------------2----------------------------------|
E|------------------4------0-0-------------0----------------------------------|
            All in all I feel you with my heart
e|-----------------------4-4--------------4------0-0------0----------------------|
B|-----------------------4-4--------------4------2-2------0----------------------|
G|-----------------------6-6--------------4------2-2------1----------------------|
D|-----------------------6-6--------------6------2-2------2----------------------|
A|-----------------------4-4--------------6------0-0------2----------------------|
E|----------------------------------------4------0-0------0----------------------|
            But I canít feel you with my soul        
e|--4---------------4------0-0-------------0----------------------------------|
B|--4---------------4------2-2-------------0----------------------------------|
G|--6---------------4------2-2-------------1----------------------------------|
D|--6---------------6------2-2-------------2----------------------------------|
A|--4---------------6------0-0-------------2----------------------------------|
E|------------------4------0-0-------------0----------------------------------|
            All in all I feel you with my heart
e|-----------------------4-4--------------4------0-0------0----------------------|
B|-----------------------4-4--------------4------2-2------0----------------------|
G|-----------------------6-6--------------4------2-2------1----------------------|
D|-----------------------6-6--------------6------2-2------2----------------------|
A|-----------------------4-4--------------6------0-0------2----------------------|
E|----------------------------------------4------0-0------0----------------------|
            But I canít feel you with my soul, No-ho-ho-ho-ho-ho-ho-ho-ho
e|--4---------------4------0-0-------------0----------------------------------|
B|--4---------------4------2-2-------------0----------------------------------|
G|--6---------------4------2-2-------------1----------------------------------|
D|--6---------------6------2-2-------------2----------------------------------|
A|--4---------------6------0-0-------------2----------------------------------|
E|------------------4------0-0-------------0----------------------------------|
            All in all I feel you with my heart
e|-----------------------4-4--------------4------0-0------0----------------------|
B|-----------------------4-4--------------4------2-2------0----------------------|
G|-----------------------6-6--------------4------2-2------1----------------------|
D|-----------------------6-6--------------6------2-2------2----------------------|
A|-----------------------4-4--------------6------0-0------2----------------------|
E|----------------------------------------4------0-0------0----------------------|
            But I canít feel you with my soul        
e|--4---------------4------0-0-------------0----------------------------------|
B|--4---------------4------2-2-------------0----------------------------------|
G|--6---------------4------2-2-------------1----------------------------------|
D|--6---------------6------2-2-------------2----------------------------------|
A|--4---------------6------0-0-------------2----------------------------------|
E|------------------4------0-0-------------0----------------------------------|
            All in all I feel you with my heart
e|-----------------------4-4--------------4------0-0------0----------------------|
B|-----------------------4-4--------------4------2-2------0----------------------|
G|-----------------------6-6--------------4------2-2------1----------------------|
D|-----------------------6-6--------------6------2-2------2----------------------|
A|-----------------------4-4--------------6------0-0------2----------------------|
E|----------------------------------------4------0-0------0----------------------|
            But I canít feel you with my soul, No-ho-ho-ho-ho-ho-ho-ho-ho
Related for David Homyk - All In All tab