Song name
# A B C D E F G H I J K L M N O P Q R S T U V W X Y Z

Misc Unsigned Bands - Battery - A New Day tab

A New Day
Battery
Noise Pollution

Standard Tuning

Intro: Acoustic

e------2-------2h3p2------0-------0------1-------1p0-----0-------3---|
b----3---3---3----------3---3---3------3---3---3-------3---3---3-----|
g--2-------2----------2-------2------2-------2-------2-------2-------|
d--------------------------------------------------------------------|
a--------------------------------------------------------------------|
e--------------------------------------------------------------------|


Verse: Acoustic
                               Em7                G                 D
e-x-x-x-x-x-x-x-x-x-x-----3--3--3--3--3-----3--3--3--3--3-----2--2--2--2--2-|
b-x-x-x-x-x-x-x-x-x-x-----3--3--3--3--3-----3--3--3--3--3-----3--3--3--3--3-|
g-x-x-x-x-x-x-x-x-x-x-----0--0--0--0--0-----0--0--0--0--0-----2--2--2--2--2-|
d-x-x-x-x-x-x-x-x-x-x-----2--2--2--2--2-----0--0--0--0--0-----0--0--0--0--0-|
a-x-x-x-x-x-x-x-x-x-x-----2--2--2--2--2-----2--2--2--2--2-----0--0--0--0--0-|
e-x-x-x-x-x-x-x-x-x-x--0--0--0--0--0--0--3--3--3--3--3--3--0--0--0--0--0--0-|
                                                           .
          Cadd9
e-----3--3--3--3----3---------------------------------------|
b-----3--3--3--3----3---------------------------------------|
g-----0--0--0--0----0-------------x5or6?--------------------|
d-----2--2--2--2---0h2--------------------------------------|
a--3--3--3--3--3----3---------------------------------------|
e-----x--x--x--x----x---------------------------------------|
Tap to rate this tab
# A B C D E F G H I J K L M N O P Q R S T U V W X Y Z