Song name
# A B C D E F G H I J K L M N O P Q R S T U V W X Y Z

Misc Unsigned Bands - Fragmnets Of A Puzzle - Warmness On The Photos tab

Help us improve GuitareTab! Take a short survey!
Artist: fragments of a puzzle
song:   Warmness on the photos
 
one of my most favourite songs, just had to tab it seeing as how i dont
think anyone else has even heard of this incredibly awesome band, give 
them a listen if you can find there songs, sorry i could only figure out the intro
though, the rest of it kinda got a bit hard to follow.

uh yeah, not long and very easy to learn, ive been told it 
sounds great just on the 'A' string, but i cant be bothered 
trying it.
[Note: the faster you play it, the better it sounds]

e|----------------------------------------------------|
B|----------------------------------------------------|
G|----------------------------------------------------|
D|----------------------------------------------------|
A|--0--0--0--0--7--0--0--0--0--7-/-10--0--0--0--0--7--|
E|--0--0--0--0--7--0--0--0--0--7-/-10--0--0--0--0--7--|

e|--------------------------------------------------|
B|--------------------------------------------------|
G|--------------------------------------------------|
D|--------------------------------------------------|
A|--0--0--0--0--5--3--0--0--0--0--3--5--0--0--0--0--|
E|--0--0--0--0--5--3--0--0--0--0--3--5--0--0--0--0--|

e|----------------------------------------------------|
B|----------------------------------------------------|
G|----------------------------------------------------|
D|----------------------------------------------------|
A|--3--0--0--0--0--3-\-2--4--4--4--0--0--0--0--0--0--0|
E|--3--0--0--0--0--3-\-2--4--4--4--0--0--0--0--0--0--0|

repeat about 3 times..ill get back with the rest of the song soon :}

sorry if you don't like it that much, i have only been playing for 
a few weeks now (and not very frequently at that), and this is my first tab.
however if you do like it, let me know at riki_the_great@hotmail.com 
----------------------------:D----------------------------------------
Related for Fragmnets Of A Puzzle - Warmness On The Photos tab