Guitaretab - guitar tabs
Song name
# A B C D E F G H I J K L M N O P Q R S T U V W X Y Z

Misc Unsigned Bands - Roots N Boots - Made In Malaysia tab

Intro: 3 times
(it is a solo thing to but i dont have it right now)
E|---------------------------------------------------------------------|
B|---------------------------------------------------------------------|
G|-------------------6-6-6-6-6-6-6-6-----------------------------------|
D|-------------------4-4-4-4-4-4-4-4-----------------------------------|
A|--7-7-7-7-7-7-7-7------------------4-4-4-4-4-4-4-4-4-4-4-4-4-4-4-4---|
E|--5-5-5-5-5-5-5-5------------------2-2-2-2-2-2-2-2-0-2-0-2-0-2-0-2---|

E|----------------------------------------------------------------------|
B|----------------------------------------------------------------------|
G|----------------------------------------------------------------------|
D|--7-7-7-7-7-7-7-7---7-7-7-7-7-7-7-7--9-9-9-9-9-9-9-9-9-9-9-9-9-9-9-9--|
A|--5-5-5-5-5-5-5-5---4-4-4-4-4-4-4-4--7-7-7-7-7-7-7-7-7-7-7-7-7-7-7-7--|
E|----------------------------------------------------------------------|

Verse: 4 times  PM
E|---------------------------------------------------------------------|
B|---------------------------------------------------------------------|
G|-------------------6-6-6-6-6-6-6-6-----------------------------------|
D|-------------------4-4-4-4-4-4-4-4-----------------------------------|
A|--7-7-7-7-7-7-7-7------------------4-4-4-4-4-4-4-4-4-4-4-4-4-4-4-4---|
E|--5-5-5-5-5-5-5-5------------------2-2-2-2-2-2-2-2-2-2-2-2-2-2-2-2---|
[ Tab from: http://www.guitaretab.com/m/misc-unsigned-bands/115252.html ]
E|----------------------------------------------------------------------|
B|----------------------------------------------------------------------|
G|----------------------------------------------------------------------|
D|--7-7-7-7-7-7-7-7---7-7-7-7-7-7-7-7--9-9-9-9-9-9-9-9-9-9-9-9-9-9-9-9--|
A|--5-5-5-5-5-5-5-5---4-4-4-4-4-4-4-4--7-7-7-7-7-7-7-7-7-7-7-7-7-7-7-7--|
E|----------------------------------------------------------------------|


Ref: 1
E|-----------------------------------------------------------------------|
B|-----------------------------------------------------------------------|
G|-----------------------------------------------------------------------|
D|--7-7-7-7-7-7-7-7--9-9-9-9-9-9-9-9-------------------------------------|
A|--5-5-5-5-5-5-5-5--7-7-7-7-7-7-7-7-7-7-7-7-7-7-7-7-7-7-7-7-7-7---9--11-|
E|-----------------------------------5-5-5-5-5-5-5-5-5-5-5-5-5-5---7--9--|

E|-----------------------------------------------------------------------|
B|-----------------------------------------------------------------------|
G|-----------------------------------------------------------------------|
D|--7-7-7-7-7-7-7-7--9-9-9-9-9-9-9-9-------------------------------------|
A|--5-5-5-5-5-5-5-5--7-7-7-7-7-7-7-7-7-7-7-7-7-7-7-7-7-7-7-7-7-7-7-7-----|
E|-----------------------------------5-5-5-5-5-5-5-5-5-5-5-5-5-5-5-5-----|

E|--------------------------------------------------------------------------|
B|--------------------------------------------------------------------------|
G|--------------------------------------------------------------------------|
D|-----------------------------------7-7-7-7-7-7-7-7--9-9-9-9-9-9-9-9-------|
A|--4-4-4-4-4-4-4-4-4-4-4-4-4-4-4-4--5-5-5-5-5-5-5-5--7-7-7-7-7-7-7-7-------|
E|--2-2-2-2-2-2-2-2-2-2-2-2-2-2-2-2-----------------------------------------|

Youst listen to the song and you will find it :) thats all now i will update whit the 
when i got it! /take care and rock on!!!
Related for Roots N Boots - Made In Malaysia tab
×
Roots N Boots - Made In Malaysia