Song name
# A B C D E F G H I J K L M N O P Q R S T U V W X Y Z

Misc Unsigned Bands - Catalepsy - Architect tab

Band:Catalepsy (Myspace.com/catalepsy)
Song:Architect
Album:Iniquity
Tabber:I<3Hobos
Tuning:Drop G#(Though i tabbed it out in Drop A(which i think they recorded the whole 
EP in), which sounds good)
Its meant for a 7 string.
But what i do is, is ignore the high E string
So the tuning would be AEADGB
Some of it might be wrong
because its hard to figure out
what notes they play on the low B string

.=Palm Mute
p=Pull Off
h=Hammer On
~=Vibrato


Riff 1
B|-------------1-1-1-1-1-1-------------------------------------------------------------|
G|-------------4-4-4-4-4-4-------------------------------------------------------------|
D|-------------------------------------------------------------------------------------|
A|-------------------------------------------------------------------------------------|
E|-------------------------3p0---------2-1-4-------------------------------------------|
A|-0-0-0-0-0-0-------------3p0-0-0-0-0-2-1-4-------------------------------------------|x4
   . . . . . .                 . . . .

Riff 2
B|-------------------------------------------------------------------------------------|
G|-------------------------------------------------------------------5h8p5-4h7p4-3h6p3-|
D|-------------------------------------------------------------------------------------|
A|-------------------------------------------------------------------------------------|
E|-3p0---------2-1-4-3p0---------2-1-0-3p0---------2-1-4-3p0---------------------------|
A|-3p0-0-0-0-0-2-1-4-3p0-0-0-0-0-2-1-0-3p0-0-0-0-0-2-1-4-3p0-0-0-0-0-------------------|x2
       . . . .           . . . .           . . . .           . . . .

Riff 3
B|-----------1-----------1-------------------------------------------------------------|
G|-----------4-----------4-------------------------------------------------------------|
D|-------------------------------------------------------------------------------------|
A|-------------------------------------------------------------------------------------|
E|-------------------------------------------------------------------------------------|
A|-0-0-0-0-0---0-0-0-0-0---0-0-0-------------------------------------------------------|x4
   . . . . .   . . . . .   . . .

Then after Riff 3 you repeat it with a different ending.
Which would be

You do this riff once                     And repeat this ending x4

B|-1---1-2-2-2-------------------------------------------------------------------------|
G|-4---4-5-5-5---------------------------5h8p5-4h7p4-3h6p3-----------------------------|
D|-------------------------------------------------------------------------------------|
A|-------------------------And---------------------------------------------------------|
E|-------------------------------------------------------------------------------------|
A|---0---------------------------------------------------------------------------------|
     .


Verse Chord

B|-1~----------------------------------------------------------------------------------|
G|-4~----------------------------------------------------------------------------------|
D|-3~----------------------------------------------------------------------------------|
A|-0~----------------------------------------------------------------------------------|
E|-------------------------------------------------------------------------------------|
A|-------------------------------------------------------------------------------------|

Riff 4
B|-------------------------------------------------------------------------------------|
G|-------------------------------------------------------------------------------------|
D|-------------------------------------------------------------------------------------|
A|-------------------------------------------------------------------------------------|
E|-2-----2-----2-----2-----------------------------------------------------------------|
A|---1-1---1-1---1-1---1-1-1h2-1h3-Repeat-x3----1"-2"-3"-4"-3"-2"-0"-------------------|x2
     . .   . .   . .   . .


Riff 5
B|-------------------------------------------------------------------------------------|
G|-------------------------------------------------------------------------------------|
D|---7h9-----7h9-------------7h9-------------------------------------------------------|
A|-------7-------7---------------7-----------------------------------------------------|
E|-------------------------------------------------------------------------------------|
A|-0-------0-------0-0-0-0-0-------0-0-0-0-0-------------------------------------------|x8
   .       .       . . . . .       . . . . .
(after you repeat it 5 times the open PM's have a different ryhthm)

Breakdown Riff
B|-------------------------------------------------------------------------------------|
G|-------------------------------------------------------------------------------------|
D|-------------------------------------------------------------------------------------|
A|-------------------------------------------------------------------------------------|
E|-0-00-00----0-00-00-000-000----------------------------------------------------------|
A|-0-00-00----0-00-00-000-000----------------------------------------------------------|x6
   . .. ..    . .. .. ... ...
And on the 4th time you play it replace the last open triplet with a bend on the 3rd fret.

Breakdown Riff 2
B|-------------------------------------------------------------------------------------|
G|-------------------------------------------------------------------------------------|
D|-------------------------------------------------------------------------------------|
A|-------------------------------------------------------------------------------------|
E|-1-11-11----1-11-11-111-111-----------------0-00-00-0--------------------------------|
A|-0-00-00----0-00-00-000-000-Repeat x2 then--0-00-00-0--------------------------------|
   . .. ..    . .. .. ... ...                 . .. ..
Tap to rate this tab
# A B C D E F G H I J K L M N O P Q R S T U V W X Y Z