Song name
# A B C D E F G H I J K L M N O P Q R S T U V W X Y Z

Misc Unsigned Bands - Xafbx - Jumping Ships tab

i figured nobodys tryed to tab this song its good song so ill try
tell me if its wrong i think it sounds close leave comments.
drop D tuning

~ let ring
* harmonic

intro
|-----------------------------------------------------------------|
|-----------------------------------------------------------------|
|-----------------------------------------------------------------|
|--0~----0~----0~----0~----0--0--0--------------------------------|
|--0~----0~----0~----0~----0--0--0--------------------------------|
|--0~----0~----0~----0~----0--0--0--------------------------------|

next riff

|------------------------------------------------------------------------- 
|----------------------------------------------------------------- ------- 
|-----------------------------------------------------------------  ------ 
|--0-0-0--0-0-0---0--0--0---0-0-0--0-0-0---0--0--0----------------   ----- 
|--0-0-0--0-0-0---0--0--0---0-0-0--0-0-0---0--0--0----------------    ---- 
|--0-0-0--0-0-0---0--0--0---0-0-0--0-0-0---0--0--0----------------     --- - x2
                                                                        -
|-----------------------------------------------------------------     -- 
|-----------------------------------------------------------------    --- 
|-----------------------------------------------------------------   ---- 
|--0-0-0--0-0-0---0--0--0---0-0-0--0-0-0---0--0-------------------  ----- 
|--0-0-0--0-0-0---0--0--0---0-0-0--0-0-0---0--0------------------- ------ 
|--0-0-0--0-0-0---0--0--0---0-0-0--0-0-0---0--0--0---5*------------------ 


next...x2

|-----------------------------------------------------------------|
|-----------------------------------------------------------------|
|-----------------------------------------------------------------|
|--0-0-0--0-0-0---0--0---0--0---0-0-0--0-0-0---0--0---0--0--------|
|--0-0-0--0-0-0---0--0---0--0---0-0-0--0-0-0---0--0---0--0--------|
|--0-0-0--0-0-0---0--0---0--0---0-0-0--0-0-0---0--0---0--0--------|

then x2

|-----------------------------------------------------------------|
|-----------------------------------------------------------------|
|-----------------------------------7~----------------------------|
|--0-0-0--0-0-0---0--0---0-0-0--0-0-0~----------------------------|
|--0-0-0--0-0-0---0--0---0-0-0--0-0-0~----------------------------|
|--0-0-0--0-0-0---0--0---0-0-0--0-0-0~----------------------------|

next... x4

|-----------------------------------------------------------------|
|-----------------------------------------------------------------|
|--0-0-0--0-0-0------------0-0-0--0-0-0---------------------------|
|--0-0-0--0-0-0--7-8-10-7--0-0-0--0-0-0--7-8-4--------------------|
|--0-0-0--0-0-0------------0-0-0--0-0-0---------------------------|

|-----------------------------------------------------------------|
|-----------------------------------------------------------------|
|--0-0-0--0-0-0--------------8~---10~---7~------------------------|
|--0-0-0--0-0-0--7-8-10-7----8~---10~---7~------------------------|
|--0-0-0--0-0-0--------------8~---10~---7~------------------------|

next riff

|------------------------------------------------------------------------- 
|----------------------------------------------------------------- ------- 
|-----------------------------------------------------------------  ------ 
|--0-0-0--0-0-0---0--0--0---0-0-0--0-0-0---0--0--0----------------   ----- 
|--0-0-0--0-0-0---0--0--0---0-0-0--0-0-0---0--0--0----------------    ---- 
|--0-0-0--0-0-0---0--0--0---0-0-0--0-0-0---0--0--0----------------     --- - x2
                                                                        -
|-----------------------------------------------------------------     -- 
|-----------------------------------------------------------------    --- 
|-----------------------------------------------------------------   ---- 
|--0-0-0--0-0-0---0--0--0---0-0-0--0-0-0---0--0-------------------  ----- 
|--0-0-0--0-0-0---0--0--0---0-0-0--0-0-0---0--0------------------- ------ 
|--0-0-0--0-0-0---0--0--0---0-0-0--0-0-0---0--0--0---5*------------------ 


next...x2

|-----------------------------------------------------------------|
|-----------------------------------------------------------------|
|-----------------------------------------------------------------|
|--0-0-0--0-0-0---0--0---0--0---0-0-0--0-0-0---0--0---0--0--------|
|--0-0-0--0-0-0---0--0---0--0---0-0-0--0-0-0---0--0---0--0--------|
|--0-0-0--0-0-0---0--0---0--0---0-0-0--0-0-0---0--0---0--0--------|

next...lol

|-----------------------------------------------------------------|
|-----------------------------------------------------------------|
|------8--10----------8--5----------8--10-------6x4-10x4----------|
|--0~--8--10-----0~---8--5-----0~---8--10---8x8-6x4-10x4----------|
|--0~--8--10-----0~---8--5-----0~---8--10---8x8-6x4-10x4----------|
|--0~--8--10-----0~---8--5-----0~---8--10---8x8-6x4-10x4----------|

then little diff...x2


|-------------------------------------------------------------------|
|-------------------------------------------------------------------|
|----------8--10-------------8--5-------------8--10-------6x4-10x4--|
|--0~------8--10-----0~------8--5-----0~------8--10---8x8-6x4-10x4--|
|--0~------8--10-----0~------8--5-----0~------8--10---8x8-6x4-10x4--|
|--0~-0x10-8--10-----0~-0x10-8--5-----0~-0x10-8--10---8x8-6x4-10x4--|

then...x2

|-------------------------------------------------------------------|
|-------------------------------------------------------------------|
|--0~---10~--------10-------0~--------------------6x4-10x4----------|
|--0~---10~--------10-------0~----------------8x8-6x4-10x4----------|
|--0~---10~--------10-------0~----------------8x8-6x4-10x4----------|
|--0~---10~--0x4-8-10-------0~----------------8x8-6x4-10-4----------|


next...x2

|-----------------------------------------------------------------|
|-----------------------------------------------------------------|
|-----------------------------------------------------------------|
|--0-0-0--0-0-0---0--0---0--0---0-0-0--0-0-0---0--0---0--0--------|
|--0-0-0--0-0-0---0--0---0--0---0-0-0--0-0-0---0--0---0--0--------|
|--0-0-0--0-0-0---0--0---0--0---0-0-0--0-0-0---0--0---0--0--------|


then x2

|-----------------------------------------------------------------|
|-----------------------------------------------------------------|
|-----------------------------------7~----------------------------|
|--0-0-0--0-0-0---0--0---0-0-0--0-0-0~----------------------------|
|--0-0-0--0-0-0---0--0---0-0-0--0-0-0~----------------------------|
|--0-0-0--0-0-0---0--0---0-0-0--0-0-0~----------------------------|


ending...
|-----------------------------------------------------------------|
|-----------------------------------------------------------------|
|-----------------7~----------------------------------------------|
|--0-0-0--0-0-0---0~----------------------------------------------|
|--0-0-0--0-0-0---0~----------------------------------------------|
|--0-0-0--0-0-0---0~----------------------------------------------|


                   leave comments please
                     hope you enjoy!
Tap to rate this tab
 
# A B C D E F G H I J K L M N O P Q R S T U V W X Y Z