Song name
# A B C D E F G H I J K L M N O P Q R S T U V W X Y Z

Misc Unsigned Bands - Castle Crashers - Store Theme tab

THE CASTLE CRACHERS STORE SONG
TRANSCRIBED BY CALEN TACKETT - YOuTUBE.COM/NITROGLIS2


~ = slide
: = quike

e|------------------------6-7-8:9-8-6-7----8--8-8-8-6-------------------|
B|-9~11-9~11-9~11-6-7-8-9-----------------------------9-7-6---6---------|
G|----------------------------------------------------------8-----------|
D|----------------------------------------------------------------------|
A|----------------------------------------------------------------------|
E|----------------------------------------------------------------------|

e|------------------------6-7-8:9-8-6-7----8--8-8-8-6-8-9---------------|
B|-9~11-9~11-9~11-6-7-8-9---------------------------------9-6-----------|
G|------------------------------------------------------------6---------|
D|----------------------------------------------------------------------|
A|----------------------------------------------------------------------|
E|----------------------------------------------------------------------|

e|13--13-13-13--11-10-11-11-11-11-11-11-------------11:13:14-14--14-14-14-11-13-14-14-14-14-14-14|
B|-----------------------------------------10-13-14----------------------------------------------|
G|--------------------------------------13-------------------------------------------------------|
D|-----------------------------------------------------------------------------------------------|
A|-----------------------------------------------------------------------------------------------|
E|-----------------------------------------------------------------------------------------------|

e|------------16--16-16-16-14-13-14-14-14-14-14-14----------14----------------------------------|
B|---10-13-14-----------------------------------------13-16----16-13-14-14-14-14-14-14----------|
G|13-----------------------------------------------13-------------------------------------------|
D|----------------------------------------------------------------------------------------------|
A|----------------------------------------------------------------------------------------------|
E|----------------------------------------------------------------------------------------------|


Rythm part:


intro
e|----4-4---4-4---4-4---4-4-----|
B|----6-6---6-6---6-6---6-6-----|
G|----6-6---6-6---6-6---6-6-----|
D|----6-6---6-6---6-6---6-6-----|
A|--4-----------4---------------|
E|--------4-----------4---------|

Main part, repeats 4 times after intro

e|---4-4---4-4---4-4---4-4---4-4---------4-4---4-4----|
B|---6-6---6-6---4-4---4-4---4-4---------6-6---6-6----|
G|---6-6---6-6---5-5---5-5---5-5---------6-6---6-6----|
D|---6-6---6-6---6-6---6-6---6-6---------6-6---6-6----|
A|-4-----------6-----------6-----------4--------------|
E|-------4-----------4-----------4-6-8-------4--------|
Tap to rate this tab
# A B C D E F G H I J K L M N O P Q R S T U V W X Y Z