Song name
# A B C D E F G H I J K L M N O P Q R S T U V W X Y Z

Misc Unsigned Bands - Jdg - A Horrid Place Full Of Dark Nasty Things tab

Highlighted       Show chord diagrams
Verse
       Am      C       E     F
|----------------------------------1-|
|-------1------1----------------1----|
|-----2------0--------1------2-------|
|---2------2--------2-----3----------|
|-0------3--------2------------------|
|---------------0--------------------|

Chorus
Am E C |-0-|
       |-3-|
       |-5-|
       |-4-|
       |-5-|
       |-x-|

Break
|-0--0-1-0--0--0-1-3-1-0--0--0-3-1-0--0|
|-1---------0-------------1-----------3|
|-2---------1-------------0-----------5|
|-2---------2-------------2-----------4|
|-0---------2-------------3-----------5|
|-----------0--------------------------|
Bridge
 Am E Am F

Order
Verse x3 (picking x two, then 16 beats of each chord)
Chorus x 2 (16 beats a chord)
Break
Verse x 3
Chorus x 2
Break
Bridge x5
Chorus x 2 (halftime)
Break

Link-http://home.myspace.com/index.cfm?fuseaction=user&MyToken=b3cc890e-3025-4d97-
925c-fddd4fb3ed65
Tap to rate this tab
# A B C D E F G H I J K L M N O P Q R S T U V W X Y Z