Song name
# A B C D E F G H I J K L M N O P Q R S T U V W X Y Z

Misc Unsigned Bands - Mitch Hansen Band - Lullaby tab

Help us improve GuitareTab! Take a short survey!
-------------------------------------------------------------------------------
			     Lullaby - Mitch Hansen Band
-------------------------------------------------------------------------------

Tabbed by: Nathan Kaderbek
E-Mail: kaderbek_legend@hotmail.com
Note:
  I take no credit for figuring out the song, only 
  the tab that I wrote up. All credit goes to 
  Crissy, elmosbud21 @ youtube.
Another note:
  The second guitar is completely optional, I 
  wasn't going to tab it, but I though that the
  tab would be incomplete unless I put in the
  second guitar.

Tuning: DADGBe (Drop D)

Intro:

Guitar 1
e||-------------------------------------|-------------------------------------|
B||-------------------------------------|-------------------------------------|
G||-------------------------------------|-------------------------------------|
D||-----6-----6h7--------7--------6-----|-----6-----6h7--------7--------6-----|
A||--------7-------7--------7--------7--|--------7-------7--------7--------7--|
E||--7----------------7--------7--------|--7----------------7--------7--------|


Guitar 1
e||--------------------------------------|--------------------------------------|
B||--------------------------------------|--------------------------------------|
G||--------------------------------------|--------------------------------------|
D||-----0-----2p0--------0------------0--|-----0-----2p0--------0------------0--|
A||--------0-------0--------0-----2/4----|--------0-------0--------0-----2/4----|
E||--0----------------0--------0---------|--0----------------0--------0---------|


Guitar 1
e||-------------------------------------|-------------------------------------|
B||-------------------------------------|-------------------------------------|
G||-------------------------------------|-------------------------------------|
D||-----6-----6h7--------7--------6-----|-----6-----6h7--------7--------6-----|
A||--------7-------7--------7--------7--|--------7-------7--------7--------7--|
E||--7----------------7--------7--------|--7----------------7--------7--------|


Guitar 2 
e||-------------------------------------|-------------------------------------|
B||-------------------------------------|-------------------------------------|
G||-----------4h6-----------------4-----|-----------4h6-----------------9-----|
D||-------------------------------------|-------------------------------------|
A||-------------------------------------|-------------------------------------|
E||-------------------------------------|-------------------------------------|

                   
Guitar 1
e||--------------------------------------|--------------------------------------|
B||--------------------------------------|--------------------------------------|
G||--------------------------------------|--------------------------------------|
D||-----0-----2p0--------0------------0--|-----0-----2p0--------0------------0--|
A||--------0-------0--------0-----2/4----|--------0-------0--------0-----2/4----|
E||--0----------------0--------0---------|--0----------------0--------0---------|


Guitar 2
e||--------------------------------------|-------------------------------------|
B||--------------------------------------|-------------------------------------|
G||--7------------------------------9----|--7----------------------------------|
D||--------------------------------------|-------------------------------------|
A||--------------------------------------|-------------------------------------|
E||--------------------------------------|-------------------------------------|

Verse:

Guitar 1
e||-------------------------------------|-------------------------------------|
B||-------------------------------------|-------------------------------------|
G||-------------------------------------|-------------------------------------|
D||-----6-----6h7--------7--------6-----|-----6-----6h7--------7--------6-----|
A||--------7-------7--------7--------7--|--------7-------7--------7--------7--|
E||--7----------------7--------7--------|--7----------------7--------7--------|


Guitar 2 
e||-------------------------------------|-------------------------------------|
B||-------------------------------------|-------------------------------------|
G||-----------4h6-----------------4-----|-----------4h6-----------------9-----|
D||-------------------------------------|-------------------------------------|
A||-------------------------------------|-------------------------------------|
E||-------------------------------------|-------------------------------------|


Guitar 1
e||--------------------------------------|--------------------------------------|
B||--------------------------------------|--------------------------------------|
G||--------------------------------------|--------------------------------------|
D||-----0-----2p0--------0------------0--|-----0-----2p0--------0------------0--|
A||--------0-------0--------0-----2/4----|--------0-------0--------0-----2/4----|
E||--0----------------0--------0---------|--0----------------0--------0---------|


Guitar 2
e||--------------------------------------|-------------------------------------|
B||--------------------------------------|-------------------------------------|
G||--7------------------------------9----|--7----------------------------------|
D||--------------------------------------|-------------------------------------|
A||--------------------------------------|-------------------------------------|
E||--------------------------------------|-------------------------------------|


Guitar 1
e||-------------------------------------|-------------------------------------|
B||-------------------------------------|-------------------------------------|
G||-------------------------------------|-------------------------------------|
D||-----6-----6h7--------7--------6-----|-----6-----6h7--------7--------6-----|
A||--------7-------7--------7--------7--|--------7-------7--------7--------7--|
E||--7----------------7--------7--------|--7----------------7--------7--------|


Guitar 2 
e||-------------------------------------|-------------------------------------|
B||-------------------------------------|-------------------------------------|
G||-----------4h6-----------------4-----|-----------4h6-----------------9-----|
D||-------------------------------------|-------------------------------------|
A||-------------------------------------|-------------------------------------|
E||-------------------------------------|-------------------------------------|


Guitar 1
e||--------------------------------------|--------------------------------------|
B||--------------------------------------|--------------------------------------|
G||--------------------------------------|--------------------------------------|
D||-----0-----2p0--------0------------0--|-----0-----2p0--------0------------0--|
A||--------0-------0--------0-----2/4----|--------0-------0--------0-----2/4----|
E||--0----------------0--------0---------|--0----------------0--------0---------|


Guitar 2
e||--------------------------------------|-------------------------------------|
B||--------------------------------------|-------------------------------------|
G||--7------------------------------9----|--7----------------------------------|
D||--------------------------------------|-------------------------------------|
A||--------------------------------------|-------------------------------------|
E||--------------------------------------|-------------------------------------|


Pre-Chorus

e||---------------------------------|---------------------------------|
B||---------------------------------|---------------------------------|
G||---------------------------------|---------------------------------|
D||--7---7---7---7---7---7---7---7--|--7---7---7---7---7---7---7---7--|
A||--4---4---4---4---4---4---4---4--|--7---7---7---7---7---7---7---7--|
E||--4---4---4---4---4---4---4---4--|--7---7---7---7---7---7---7---7--|



e||-----------------------------------------------------|
B||-----------------------------------------------------|
G||--6---6--6-7-7-7-7---7-7-7-9---9--9-7-7-7-7---7-7-7--|
D||--0---0--0-0-0-0-0---0-0-0-0---0--0-0-0-0-0---0-0-0--|
A||--0-0-0--0-0-0-0-0-0-0-0-0-0-0-0--0-0-0-0-0-0-0-0-0--|
E||--0-0-0--0-0-0-0-0-0-0-0-0-0-0-0--0-0-0-0-0-0-0-0-0--|



e||---------------------------------|---------------------------------|
B||---------------------------------|---------------------------------|
G||---------------------------------|---------------------------------|
D||--7---7---7---7---7---7---7---7--|--7---7---7---7---7---7---7---7--|
A||--4---4---4---4---4---4---4---4--|--7---7---7---7---7---7---7---7--|
E||--4---4---4---4---4---4---4---4--|--7---7---7---7---7---7---7---7--|




e||-----------------------------------------------------|
B||-----------------------------------------------------|
G||--6---6--6-7-7-7-7---7-7-7-9---9--9-7-7-7-7---7-7-7--|
D||--0---0--0-0-0-0-0---0-0-0-0---0--0-0-0-0-0---0-0-0--|
A||--0-0-0--0-0-0-0-0-0-0-0-0-0-0-0--0-0-0-0-0-0-0-0-0--|
E||--0-0-0--0-0-0-0-0-0-0-0-0-0-0-0--0-0-0-0-0-0-0-0-0--|


Chorus:

e||--------------------------------------|-------------------------------------|
B||--------------------------------------|-------------------------------------|
G||--------------------------------------|-------------------------------------|
D||--7-x777xx-2-x222xx-7-x777xx-0-x000xx-|-7-x777xx-2-x222xx-7-x777xx-0-x000xx-|
A||--7-x777xx-2-x222xx-4-x444xx-0-x000xx-|-7-x777xx-2-x222xx-4-x444xx-0-x000xx-|
E||--7-x777xx-2-x222xx-4-x444xx-0-x000xx-|-7-x777xx-2-x222xx-4-x444xx-0-x000xx-|



e||--------------------------------------|-----------------------------------------------|
B||--------------------------------------|-----------------------------------------------|
G||--------------------------------------|----------------------------2-2/4-4-4-4-4/2--2-|
D||--7-x777xx-2-x222xx-7-x777xx-0-x000xx-|-7-x777xx-2-x222xx-7-x777xx-0-0---0-0-0-0----0-|
A||--7-x777xx-2-x222xx-4-x444xx-0-x000xx-|-7-x777xx-2-x222xx-4-x444xx-0-0---0-0-0-0----0-|
E||--7-x777xx-2-x222xx-4-x444xx-0-x000xx-|-7-x777xx-2-x222xx-4-x444xx-0-0---0-0-0-0----0-|

Song Order:
Intro
Verse
Pre-Chorus
Chorus
Verse x2
Pre-Chorus
Chorus
Verse
Pre-Chorus
Chorus
Verse  (The very last bar slow down, you'll know what I mean if you listen to the song.)
Related for Mitch Hansen Band - Lullaby tab