Song name
# A B C D E F G H I J K L M N O P Q R S T U V W X Y Z

Misc Unsigned Bands - Texas Drag Queen Massacre - Dying To Be With You tab

Please note that this is for the VIDEO version, not the CD. the only difference is the 
and this one is played slower.

Intro part 1
e|---------------------------------------------------------|
B|---------------------------------------------------------|
G|---------------------------------------------------------|
D|7--------------7-7----3--------------3-3-----------------|
A|5-(hold chord)-7-7----3-(hold chord)-3-3-----------------|
E|5--------------5-5----1--------------1-1-----------------|
                 ^pick slide here first time round

play that bit 4 times

Intro part 2
e|---------------------------------------------------------|
B|---------------------------------------------------------|
G|222222--------555555-7-5-4-2-----------------------------|
D|222222-333333-555555-7-5-4-2-----------------------------|
A|000000-333333-333333-5-3-2-0-----------------------------|
E|-------111111--------------------------------------------|

that bit gets played twice, then

Verse
e|---------------------------------------------------------|
B|---------------------------------------------------------|
G|22222222-------------------------------------------------|
D|22222222--33333333-55555555-77777777---------------------|
A|00000000--33333333-55555555-77777777---------------------|
E|----------11111111-33333333-55555555---------------------|
played four times
(please note that e|- and e|- are interchangeble so play it whichever way
                  B|-     B|-  is easiest. This is how they did it live
                  G|2     G|-  though).
                  D|2     D|7
                  A|0     A|7
                  E|-     E|5

Pre-chorus
e|---------------------------------------------------------|
B|---------------------------------------------------------|
G|--------------------------------------5-7----------------|
D|5--------555-7-------777-5--------555-5-7----------------|
A|5-(hold)-555-7(hold)-777-5-(hold)-555-3-5----------------|
E|3--------333-5-------555-3--------333--------------------|

Chorus
e|---------------------------------------------------------|
B|---------------------------------------------------------|
G|222222--------555555-7-5-4-2-----------------------------|
D|222222-333333-555555-7-5-4-2-----------------------------|
A|000000-333333-333333-5-3-2-0-----------------------------|
E|-------111111--------------------------------------------|

played four times with singing, then twice without pre-verse

(yes it's the same as the intro)

Verse 2
e|---------------------------------------------------------|
B|---------------------------------------------------------|
G|22222222-------------------------------------------------|
D|22222222--33333333-55555555-77777777---------------------|
A|00000000--33333333-55555555-77777777---------------------|
E|----------11111111-33333333-55555555---------------------|

played x 4


Pre-chorus
e|---------------------------------------------------------|
B|---------------------------------------------------------|
G|--------------------------------------5-7----------------|
D|5--------555-7-------777-5--------555-5-7----------------|
A|5-(hold)-555-7(hold)-777-5-(hold)-555-3-5----------------|
E|3--------333-5-------555-3--------333--------------------|

Chorus
e|---------------------------------------------------------|
B|---------------------------------------------------------|
G|222222--------555555-7-5-4-2-----------------------------|
D|222222-333333-555555-7-5-4-2-----------------------------|
A|000000-333333-333333-5-3-2-0-----------------------------|
E|-------111111--------------------------------------------|

played four times

Solo
e|-----------------------------|
B|-----------------------------|
G|-----------------------------|
D|-12b----14p12-10-10h12-------|
A|----------------------12-----|
E|-----------------------------|

e|---------------------------------------------------------------|
B|---------------------------------------------------------------|
G|----------------------------------10h12-12-12-12-12h14---------|
D|-10h12-12-12-12-12-12h14-14-14-14------------------------------|
A|---------------------------------------------------------------|
E|---------------------------------------------------------------|

e|------------------------------------------|
B|-12h13-13-13-13p12s10--12h13-13-13-13s15--|
G|------------------------------------------|
D|------------------------------------------|
A|------------------------------------------|
E|------------------------------------------|

e|------------------------------------------|
B|-12h13-13-13-13p12s10--12s10-12-----------|
G|------------------------------------------|
D|------------------------------------------|
A|------------------------------------------|
E|------------------------------------------|

Pre-chorus
e|---------------------------------------------------------|
B|---------------------------------------------------------|
G|--------------------------------------5-7----------------|
D|5--------555-7-------777-5--------555-5-7----------------|
A|5-(hold)-555-7(hold)-777-5-(hold)-555-3-5----------------|
E|3--------333-5-------555-3--------333--------------------|

Chorus
e|---------------------------------|
B|---------------------------------|
G|222222--------555555-7-5-4-2-----|
D|222222-333333-555555-7-5-4-2-----|
A|000000-333333-333333-5-3-2-0-----|
E|-------111111--------------------|
played to end (ie 8 times), shredding comes in at the end of
the 5th time on the other guitar.
the last time it is played, e|----------| each of those is played as an
                            B|----------| individual note and held rather
                            G|-7-5-4-2--| than quickly like the rest of the
                            D|-7-5-4-2--| time.
                            A|-5-3-2-0--|
                            E-----------|


| /  slide up
| \  slide down
| h  hammer-on
| p  pull-off
| b  bend
| ~  vibrato
| +  harmonic
| x  Mute note
Tap to rate this tab
 
# A B C D E F G H I J K L M N O P Q R S T U V W X Y Z