Song name
# A B C D E F G H I J K L M N O P Q R S T U V W X Y Z

Misc Unsigned Bands - All For Nothing - Clinically Crazy tab

Clinically Crazy
by All For Nothing

/  slide
^  bend
.  palm mute
p  pull off
h  hammer on
~  let ring

Intro

E-----------------------------------------|
B-----------------------------------------|
G-----------------------------------------|
D-----------------------------------------|
A---5-5-5-0-5-5-5-0-5-5-5-0-5-5-5-0-------|
E-----------------------------------------|
    . . . . . . . . . . . . . . . .

E-----------------------------------------|
B-----------------------------------------|
G-----------------------------------------|
D-----4-7-4---4h5p4--------4--------------|
A---5-------7-------7---5----5-5/9-7-5----|
E---------------------7-------------------|

E----------------------------------------|
B----------------------------------------|
G----------------------------------7-----|
D-------4---4h5p4---------4--4h5p4-------|
A-----5---5-------7-5---5--5-------------|
E---5-----------------5------------------|


Verse

E-----------------------------------------|
B-----------------------------------------|
G-------7-7---7-7-------------------------|
D---9---7-7---7-7---9-9---9-9---9-9-9-9---|
A---9---5-5---5-5---9-9---9-9---9-9-9-9---|
E---7---------------7-7---7-7---7-7-7-7---|


Pre Chorus

E-----------------------------------------|
B-----------------------------------------|
G-----------------------------------------|
D-----------------------------------------|
A---5--7--9--10--5~-5---------------------|
E-----------------------------------------|


Chorus

E-----------------------------------------|
B-----------------------------------------|
G---77777777-------------------77777777---|
D---77777777-99999999-55555555-77777777-7-|
A---55555555-99999999-55555555-55555555-7-|
E------------77777777-33333333----------5-|


Bridge

E-----------------------------------------|
B-----------------------------------------|
G-----------------------------------------|
D---7-77-9-99-11-1111-12-1212-------------|
A---5-55-7-77--9--9-9-10-1010-------------|
E-----------------------------------------|

E-----------------------------------------|
B-----------------------------------------|
G-----------------------------------------|
D---7-77-9-99-11-1111-9-99----------------|
A---5-55-7-77--9--9-9-7-77----------------|
E-----------------------------------------|


Solo

E-----------------------------------------|
B-----------------------------------------|
G-----------------------------------------|
D---5-------5---5---5-------9-7-5---------|
A-----7-5-7---7-------7-5-7---------------|
E-----------------------------------------|

E-----------------------------------------|
B---15-------15---15-15-15----------------|
G------16---------------------------------|
D---------14------------------------------|
A-----------------------------------------|
E-----------------------------------------|


Ending

E-----------------------------------------|
B-----------------------------------------|
G-----------------------------------------|
D---77777777777777777---------------------|
A---55555555555555555---------------------|
E-----------------------------------------|
    ................
Tap to rate this tab
# A B C D E F G H I J K L M N O P Q R S T U V W X Y Z