Song name
# A B C D E F G H I J K L M N O P Q R S T U V W X Y Z

Misc Unsigned Bands - Gravis - Taste Of Evil tab

Gravis - Taste Of Evil
Tabbed By Ryan Wakerell

Intro (Guitar 1)
Eb|---------------------------------|---------------------------------|
Bb|---------------------------------|---------------------------------|
Gb|---------------------------------|---------------------------------|
Db|-----5-----7-----8-----7---5/7---|-----5-----7-----8-----7---5/7---|
Ab|-----5-----7-----8-----7---5/7---|-----5-----7-----8-----7---5/7---|
Eb|-0-0-3---0-5---0-6---0-5---3/5---|-0-0-3---0-5---0-6---0-5---3/5---|
   PM... (Guitar 2)                  PM...
Eb|---------------------------------|---------------------------------|
Bb|---------------------------------|---------------------------------|
Gb|---------------------------------|---------------------------------|
Db|---------------------------------|-2---2---------------------------|
Ab|---------------------------------|-2---2---------------------------|
Eb|---------------------------------|-0---0---------------------------|
(Guitar 1)
Eb|---------------------------------|---------------------------------|
Bb|---------------------------------|---------------------------------|
Gb|---------------------------------|---------------------------------|
Db|-----5-----7-----8-----7---5/7---|-----5-----7-----2---------------|
Ab|-----5-----7-----8-----7---5/7---|-----5-----7-----2---------------|
Eb|-0-0-3---0-5---0-6---0-5---3/5---|-0-0-3---0-5---0-0---------------|
   PM... (Guitar 2)                  PM...
Eb|---------------------------------|---------------------------------|
Bb|---------------------------------|---------------------------------|
Gb|---------------------------------|---------------------------------|
Db|-2---2---------------------------|-2---2-----------2---------------|
Ab|-2---2---------------------------|-2---2-----------2---------------|
Eb|-0---0---------------------------|-0---0-----------0---------------|
(Guitars 1&2)
Eb|---------------------------------|---------------------------------|
Bb|---------------------------------|---------------------------------|
Gb|---------------------------------|---------------------------------|rpt
Db|-----5-----7-----8-----7-----5/7-|-----5-----7-----8-----7-----5/7-|x4
Ab|-----5-----7-----8-----7-----5/7-|-----5-----7-----8-----7-----5/7-|
Eb|-0-0-3---0-5---0-6---0-5---0-3/5-|-0-0-3---0-5---0-6---0-5---0-3/5-|
   PM...                             PM...

Verse x5 (Guitars 1&2)
Eb|---------------------------------|---------------------------------|
Bb|---------------------------------|---------------------------------|
Gb|---------------------------------|---------------------------------|
Db|---------9---9-----------7---9---|---------5---5/7---------5---5/4-|
Ab|---------9---9-----------7---9---|---------5---5/7---------5---5/4-|
Eb|-0-0-0-0-7---7---0-0-0-0-5---7---|-0-0-0-0-3---3/5-0-0-0-0-3---3/2-|
    PM.....         PM.....           PM.....         PM.....

Chorus x3 (Guitars 1&2)
Eb|---------------------------------|---------------------------------|
Bb|---------------------------------|---------------------------------|
Gb|---------------------------------|---------------------------------|
Db|-2~--------------9~--------------|-7~--------------5~--------------|
Ab|-2~--------------9~--------------|-7~--------------5~--------------|
Eb|-0~--------------7---------------|-5~--------------3~--------------|
(Guitar 1)
Eb|---------------------------------|---------------------------------|
Bb|---------------------------------|---------------------------------|
Gb|---------------------------------|-7-7-7-7-7~------9-9-9-9-9~------|
Db|-2~--------------9~--------------|-7-7-7-7-7~------9-9-9-9-9~------|
Ab|-2~--------------9~--------------|-5~5-5-5-5~------7-7-7-7-7~------|
Eb|-0~----------0-0-7-----------0-0-|---------------------------------|
(Guitar 2)                            PM.....         PM.....
Eb|---------------------------------|---------------------------------|
Bb|---------------------------------|---------------------------------|
Gb|---------------------------------|-7~--------------9~--------------|
Db|-2~--------------9~--------------|-7~--------------9~--------------|
Ab|-2~--------------9~--------------|-5~--------------7~--------------|
Eb|-0~--------------7---------------|---------------------------------|

Post-Chorus (Guitars 1&2)
Eb|---------------------------------|---------------------------------|
Bb|---------------------------------|---------------------------------|
Gb|---------------------------------|---------------------------------|
Db|-------------------------------7-|-------------------------------7-|
Ab|-------------------------------7-|-------------------------------7-|
Eb|-0-0-0-0-0-0-0-0-0-0-0-0-3-0-3-5-|-0-0-0-0-0-0-0-0-0-0-0-0-3-0-3-5-|
    PM...........................     PM...........................
Eb|---------------------------------|---------------------------------|
Bb|---------------------------------|---------------------------------|
Gb|---------------------------------|---------------------------------|
Db|-------------------------------7-|---------------------------------|
Ab|-------------------------------7-|---------------------------------|
Eb|-0-0-0-0-0-0-0-0-0-0-0-0-3-0-3-5-|-0-0-0-0-0-0-0-0-0-0-0-0-3-0-0~--|
    PM...........................     PM.........................

Verse x5
Chorus x3
Post-Chorus

Breakdown x9 (Guitar 2)
Eb|---------------------------------|---------------------------------|
Bb|---------------------------------|---------------------------------|
Gb|---------------------------------|---------------------------------|
Db|-----9-------9-------9-------9---|-----7---4---7-------7---4---7---|
Ab|-7-------10------7-------10------|-5---------------5---------------|
Eb|---------------------------------|---------------------------------|

Eb|---------------------------------|---------------------------------|
Bb|---------------------------------|---------------------------------|
Gb|---------------------------------|---------------------------------|
Db|---------------------------------|---------------------------------|
Ab|-----10--9---10------10--9---10--|-----9---10--9-------9---10--9---|
Eb|-8---------------8---------------|-7---------------7---------------|

Bridge x2 (Guitars 1&2)
Eb|---------------------------------|---------------------------------|
Bb|---------------------------------|---------------------------------|
Gb|-9-------9-------9-------9-------|-7-------7-------7-------7-------|
Db|-9-------9-------9-------9-------|-7-------7-------7-------7-------|
Ab|-7-------7-------7-------7-------|-5-------5-------5-------5-------|
Eb|-----0-0-----0-0-----0-0-----0-0-|-----0-0-----0-0-----0-0-----0-0-|
       PM...   PM...   PM...   PM...     PM...   PM...   PM...   PM...
Eb|---------------------------------|---------------------------------|
Bb|---------------------------------|---------------------------------|
Gb|---------------------------------|---------------------------------|
Db|-10------10--------------10------|-9-------9---------------9-------|
Ab|-10------10--------------10------|-9-------9---------------9-------|
Eb|-8---0-0-8---0-0-0-0-0-0-8---0-0-|-7---0-0-7---0-0-0-0-0-0-7---0-0-|
       PM...    PM.........    PM...     PM...    PM.........    PM...

Bridge 2 x2 (Guitars 1%2)
Eb|---------------------------------|---------------------------------|
Bb|---------------------------------|---------------------------------|
Gb|-9-------7-----------------------|-9-------7-----------------------|
Db|-9-------7-------10------9-------|-9-------7-------10--9---9-------|
Ab|-7-------5-------10------9-------|-7-------5-------10--9---9-------|
Eb|-----0-0-----0-0-8---0-0-7---0-0-|-----0-0-----0-0-8---7---7-------|
       PM...   PM...   PM...   PM...     PM...   PM...

Solo (Guitars 2)
Eb|---------------------------------|---------------------------------|
Bb|---------------------------------|---------------------------------|
Gb|---------------------------------|---------------------------------|rpt
Db|-----5-----7-----8-----7---5/7---|-----5-----7-----8-----7---5/7---|x6
Ab|-----5-----7-----8-----7---5/7---|-----5-----7-----8-----7---5/7---|
Eb|-0-0-3---0-5---0-6---0-5---3/5---|-0-0-3---0-5---0-6---0-5---3/5---|
   PM...                             PM...
Eb|---------------------------------|---------------------------------|
Bb|---------------------------------|---------------------------------|
Gb|-----5-----7-----8-----7---5/7---|-----5-----7-----8-----7---5/7---|rpt
Db|-----5-----7-----8-----7---5/7---|-----5-----7-----8-----7---5/7---|x2
Ab|-0-0-3---0-5---0-6---0-5---3/5---|-0-0-3---0-5---0-6---0-5---3/5---|
Eb|---------------------------------|---------------------------------|
   PM...                             PM...

Outro (Guitars 1&2)
Eb|---------------------------------|---------------------------------|
Bb|---------------------------------|---------------------------------|
Gb|---------------------------------|---------------------------------|rpt
Db|-----5-----7-----8-----7---5/7---|-----5-----7-----8-----7---5/7---|x2
Ab|-----5-----7-----8-----7---5/7---|-----5-----7-----8-----7---5/7---|
Eb|-0-0-3---0-5---0-6---0-5---3/5---|-0-0-3---0-5---0-6---0-5---3/5---|
   PM...                             PM...
Eb|---------------------------------|---------------------------------|
Bb|---------------------------------|---------------------------------|
Gb|---------------------------------|---------------------------------|rpt
Db|-----5-----7-----8-8---8---8-8---|-----5-----7-----8-8---5---5-5---|x2
Ab|-----5-----7-----8-8---8---8-8---|-----5-----7-----8-8---5---5-5---|
Eb|-0-0-3---0-5---0-6-6---6---6-6---|-0-0-3---0-5---0-6-6---3---3-3---|
   PM...                             PM...
Eb|---------------------------------|
Bb|---------------------------------|
Gb|---------------------------------|
Db|-2~------------------------------|
Ab|-2~------------------------------|
Eb|-0~------------------------------|
Tap to rate this tab
 
# A B C D E F G H I J K L M N O P Q R S T U V W X Y Z