Song name
# A B C D E F G H I J K L M N O P Q R S T U V W X Y Z

Misc Unsigned Bands - Goukisan - Guitar Vs Piano 1 2 tab

Guitar vs. Piano 1.2 - Goukisan
Taken from the Newgrounds Audio Portal, Tab by OMGx, Fixed by Paan002.

www.goukisan.newgrounds.com

Standard Tuning: EADGBE

All credits STILL belong to OMGx and Goukisan, I only made it easier to play and fixed some flaws.

First Part:
|:-------------------|-------------------|-------------------|
|:-------------------|-------------------|-------------------|
|:------0-2---2-0----|------2---4---2-0--|----------0---2----|
|:--2-2-----2-----4--|--2-2---2---2------|------2------------|
|:-------------------|-------------------|--3-3---3---3---3--|
|:-------------------|-------------------|-------------------|

|--------------------:|
|--------------------:|
|------4---2-----0---:|
|--0-0---0---0-4-----:|  Play 4 times
|--------------------:|
|--------------------:|

Second Part:
|:-------------------|-------------------|-------------------|
|:-------------------|-------------------|-------------------|
|:------4---2-0---0--|--2---5---4-0------|--2-4---4-2-4-0----|
|:--------------4----|--------------4-2--|------2---------4--|    This bar's for the 
|:--3-3---3----------|----3---3----------|-------------------|   second time you play it
|:-------------------|-------------------|-------------------|            V

|--------------------|--------------------|--------------------|--------------------:|
|--------------------|--------------------|--------------------|--------------------:|
|------0-------------|------0-------------|------0-------------|------0-------------:|
|--2-2---2-2-4-2-2---|--2-2---2-2-4-2-2---|--2-2---2-2-4-2-2---|--2-2---2-2-4-2-2---:|
|--------------------|--------------------|--------------------|--------------------:|
|--------------------|--------------------|--------------------|--------------------:|
Skip to 3rd part
Remember to end here btw.

|---------------------:|
|---------------------:|
|--0---2---4---2---0--:|
|----2---2---2---2----:|
|---------------------:|
|---------------------:|


Third Part (Drum starts):
|:--------------------|--------------------|
|:--------------------|--------------------|
|:------------0----2--|---5-4-2-4-2-0------|
|:--2----4------------|---------------4-0--|
|:--------------------|--------------------|
|:--------------------|--------------------|

|--------------------|--------------------|
|--------------------|--------------------|
|------0-------------|------0-------------|
|--2-2---2-2-4-2-2---|--2-2---2-2-4-2-2---|
|--------------------|--------------------|
|--------------------|--------------------|

|--------------------|--------------------|
|--------------------|---------3-1--------|
|------------0----2--|---5-4-2-----4---0--|
|--2----4------------|---------------4----|
|--------------------|--------------------|
|--------------------|--------------------|

|--------------------|--------------------:|
|--------------------|--------------------:|
|------0-------------|------0-------------:|
|--2-2---2-2-4-2-2---|--2-2---2-2-4-2-2---:|
|--------------------|--------------------:|
|--------------------|--------------------;|

Fourth Part:
|:--------------------|--------------------|
|:--------------------|--------------------|
|:--0-----0-----0-2---|--4-0---4-2---0-2---|
|:------------2-------|------2-----2-------|
|:----3-3---3---------|--------------------|
|:--------------------|--------------------|

|--------------------|--------------------|
|--------------------|--------------------|
|--0-----0-----0-2---|--4-2-4-5-4-0---0---|
|------------2-------|--------------4-----|
|----3-3---3---------|--------------------|
|--------------------|--------------------|

|--------------------|--------------------|
|--------------------|--------------------|
|--0-----0-----------|--2-----0-----------|
|------------0-2-4---|------------0-2-4---|
|----3-3---3---------|----3-3---3---------|
|--------------------|--------------------|

|--------------------|--------------------|
|--------------------|--------------------|
|--2-----4-------0---|--4-----5---4---2---|
|------------2-4-----|--------------------|
|----3-3---3---------|----3-3---3---------|
|--------------------|--------------------|

|--------------------|--------------------:|
|--------------------|--------------------:|
|--0-----0---0---0---|--0-----0---0-------:|
|--------------4-----|--------------4-0---:|
|----3-3---3---------|----3-3---3---------:|
|--------------------|--------------------:|

First Part (Piano enters on third repeat) X 8


Piano Solo.....
(guitar re-enters at around 2:39, so get ready before then)

|:----------0---------|--3----1----0----1--|
|:--------3---3-------|--------------------|
|:--2-4-5-------5-----|--------------------|
|:--------------------|--------------------|
|:--------------------|--------------------|
|:--------------------|--------------------|

|--0---0-------------|--0----0----1-0--------|
|--------3-1-0-1-3---|----------------3-0-1--|
|--------------------|-----------------------|
|--------------------|-----------------------|
|--------------------|-----------------------|
|--------------------|-----------------------|

|----------0---------|--1----0---------1--|
|----0-1-3---3-1-----|------------3-------|
|--2-----------------|--------------------|
|--------------------|--------------------|
|--------------------|--------------------|
|--------------------|--------------------|

|--0--0-0-1-0--------|--0----0----1-0--------:|
|-------------3-1-3--|----------------3-0-1--:|
|--------------------|-----------------------:|
|--------------------|-----------------------:|   Play 4 times
|--------------------|-----------------------:|
|--------------------|-----------------------:|

Break.... (You'll have to listen to it a couple of times to get it right)

Then this bar....

|-------------------|
|--3-5-3------------|
|--------5-4-5-4-0--|
|-------------------|
|-------------------|
|-------------------|


Second Part

Third Part

Fourth Part

First Part (Play 8 times)
An you're done! :D
Tap to rate this tab
 
# A B C D E F G H I J K L M N O P Q R S T U V W X Y Z