Song name
# A B C D E F G H I J K L M N O P Q R S T U V W X Y Z

Misc Unsigned Bands - Green Apple Quick Step - Los Vargos tab

Help us improve GuitareTab! Take a short survey!
Band:Green Apple Quick Step
Song:Los Vargos


Tabbed by:AllHailMe94
Email:

Tuning:EADGBE

Intro: Listen for Rythmn
Gtr1
e|---------------------------------------------------------------------------|
B|---------------------------------------------------------------------------|
G|---------------------------------------------------------------------------|
D|---------------------------------------------------------------------------|
A|-4-4-4-4-4-7-7-7-7-7-9-9-9-9-9-2-2-2-2-2-----------------------------------|
E|-2-2-2-2-2-5-5-5-5-5-7-7-7-7-7-0-0-0-0-0-----------------------------------|

Gtr2
e|---------------------------------------------------------------------------|
B|-----------7--------7----------10---------10-------------------------------|
G|---------------------------------------------------------------------------|
D|-----4-4------4-4--------7-7--------7-7------------------------------------|
A|---------------------------------------------------------------------------|
E|---------------------------------------------------------------------------|

e|---------------------------------------------------------------------------|
B|------------12---------12--------------------------------------------------|
G|----------------------------------9-------9--------------------------------|
D|-----9-9---------9-9-------------------------------------------------------|
A|-----------------------------7-7-----7-7-----------------------------------|
E|---------------------------------------------------------------------------|
Verse Both Guitars: Listen for Rythmn
e|---------------------------------------------------------------------------|
B|---------------------------------------------------------------------------|
G|---------------------------------------------------------------------------|
D|------------------------------2--------------------------------------------|
A|---4---4---4------------------0--------------------------------------------|
E|---2-0-2-0-2---------------------------------------------------------------|

Chorus: Listen for Rythmn
e|--0------2-----------------------------------------------------------------|
B|--0------3-----------------------------------------------------------------|
G|--1------2------2----------------------------------------------------------|
D|--2------0------2-------x-x-x-x-x------------------------------------------|
A|--2-------------0-------x-x-x-x-x------------------------------------------|
E|--0------------------------------------------------------------------------|

Lead Melody 2X Listen for Rythmn

e|-------------------------------------------9-------------------------------|
B|-----------------------------------------------10-10-10-10-10--------------|
G|-----11-11-11-11-11-11-11-11-11-11-11-11-----------------------------------|
D|---------------------------------------------------------------------------|
A|---------------------------------------------------------------------------|
E|---------------------------------------------------------------------------|


| /  slide up
| \  slide down
| h  hammer-on
| p  pull-off
| ~  vibrato
| +  harmonic
| x  Mute note
===============================================================================
Related for Green Apple Quick Step - Los Vargos tab