Song name
# A B C D E F G H I J K L M N O P Q R S T U V W X Y Z

Misc Unsigned Bands - Death Spring - Beer Drinking tab

 This song is really mellow so it's played pretty slow

main riff
e--------------|
B--------------|
G--------------|
D-----------3--|
A-\5--5--3-5-5-|
E-------3------|

verse 1
e--------------------------|
B--------------------------|
G--------------------------|
D----------3-666653-666653-|
A-\5-5--3-5----------------|
E------3-------------------|

VERSE 2
e------------------------|
B------------------------|
G------------------------|
D----------3-7~-5-3------|
A-\5-5--3-5--------5-3-5-|
E------3-----------------|


main riff x4
verse 1   x2
main riff x4
verse 2   x2
main riff x4
Tap to rate this tab
# A B C D E F G H I J K L M N O P Q R S T U V W X Y Z