Song name
# A B C D E F G H I J K L M N O P Q R S T U V W X Y Z

Misc Unsigned Bands - Michael Stewart - Melancholy tab

 
Artist: Michael Stewart

Title: Melancholy

Standard Tuning





Verse:

     1     2         1           3 4     5          4     5


e|-------------------------------------------------------------------|
B|---3-----1-----1---3-----1-----0-3-----0-----0----3-----0-----0----|
G|-------0---0-----------0---0---------0---0------------0---0--------|x2
D|-----2-------2---2---2-------2-----0-------0---0----0-------0---0--|
A|---3---------------3-------------2----------------2----------------|
E|-------------------------------------------------------------------|



Chorus:


     6     7         6     7     1     2     1     2
 
e|---------------------------------------------------------------|
B|---3-----0-----0---3-----0-----3-----1-----3-----1-----1-------|
G|-------0---0-----------0---0-------0---0-------0---0-----------|
D|-----2-------2---2---2-------2---2-------2---2-------2---2-----|
A|---2---------------2-----------3-----------3-------------------|
E|---------------------------------------------------------------|


     6     7         6     7     1     2     8     9
    
e|-------------------------------------------2-----0-----0-------|
B|---3-----0-----0---3-----0-----3-----1---------3---3-----------|
G|-------0---0-----------0---0-------0---0-----2-------2---2-----|
D|-----2-------2---2---2-------2---2-------2-0-------------------|
A|---2---------------2-----------3-------------------------------|
E|---------------------------------------------------------------|


Just something i made up.


The numbers above the tabs are the chords that corrospond to the 
chord chart below i wasnt sure what some of them were so i decided 
to put them all in a numbered key.  


Can be played at any temp realy up to yourself.

Chords Chart:


       1       2       3       4        5
     EADGBe  EADGBe  EADGBe  EADGBe   EADGBe  
     ======  ======  ======  ======   ======  
     032030  032010  032000  320033   320000

     
       6       7       8       9
     EADGBe  EADGBe  EADGBe  EADGBe  
     ======  ======  ======  ======  
     022030  022000  000232  000230
Tap to rate this tab
# A B C D E F G H I J K L M N O P Q R S T U V W X Y Z