Song name
# A B C D E F G H I J K L M N O P Q R S T U V W X Y Z

Misc Unsigned Bands - Capn Jazz - Little League tab

http://www.jadetree.com/bands


Yes, this is the first ever Cap'n Jazz tab written for the internet. I hope this will 
a string of more of them, they are a great band.


Tabbed by: Dan McAteer

Intro

e[----------------------------------------------------------]
B[----------------------------------------------------------]
G[--------------------------7-7-7-7-7-----------------------]
D[--7-7-7-7-7-7-7-7-7-7-7-7-7-7-7-7-7-4-4-4-4-4-4-4---------]
A[--7-7-7-7-7-7-7-7-7-7-7-7-5-5-5-5-0-4-4-4-4-4-4-4---------]
E[--5-5-5-5-0-4-4-4-4-4-4-4-----------2-2-2-2-2-2-2---------]

e[----------------------------------------------------------]
B[----------------------------------------------------------]
G[------------------------------------------9/11/9/7/9------]
D[--7-7-7-7-7-7-7-7-7-7-7-7-7-7-7-7-7-7-7-7-----------------]
A[--7-7-7-7-7-7-7-7-7-7-7-7-7-7-7-7-7-7-7-7-7/9/-7/5/7------]
E[--5-5-5-5-0-4-4-4-4-4-4-4-5-5-5-5-5-5-5-5-----------------]

(Hey coffee eyes...)

e[--------------------------------]
B[-----9-----9-----9-----9--------]
G[-----9-----9-----9-----9--------]
D[-----7-----7-----7-----7--------]
A[-0-0---0-0---0-0---0-0----------]
E[--------------------------------]
Tap to rate this tab
# A B C D E F G H I J K L M N O P Q R S T U V W X Y Z