Song name
# A B C D E F G H I J K L M N O P Q R S T U V W X Y Z

Misc Unsigned Bands - Ebbot And Mattias - Coming Down Cold tab

Coming Down Cold - Ebbot och Mattias

Capo on 5 ft


(chords)

     C        C/b       Am         F         G
e|---------|---------|---------|----1----|----3----|
B|----1----|----1----|----1----|----1----|---------|
G|---------|---------|----1----|----2----|---------|
D|----2----|---------|----2----|----3----|---------|
A|----3----|----2----|---------|----3----|----2----|
E|----o----|---------|---------|----1----|----3----|


(how to pick the chords)

  C		  C/b		  Am		   F
E|---------------|---------------|-0-------------|---------------|
B|-1-------3-----|-1-------3-----|---------3-----|-1-------3-----|
G|-----0-------0-|-----0-------0-|-----2-------0-|-----0-------0-|
D|---2-------2---|---0-------0---|---2-------0---|---3-------3---|
A|-3-----3-------|-2-----3-------|-0-----0-------|---------------|
E|---------------|---------------|---------------|-1-----1-------|

 G
|---------------|
|-0-------3-----|
|-----0-------0-|
|---0-------0---|
|---------------|
|-3-----3-------|

You have to listen to the timing.

A little note: On the F chord, use your thumb on the E-string! Easy!! :)


Lyrics

C                 C/b
Another dead end night
Am                F
I wonder who you see
C          C/b
I lost my senses
Am            F
I lost my believes


C                C/b
Feels like I'm fading
Am            F
Chill to the bone
Am           G
God let me sleep
                  C        C/b Am F
cause I'm coming down cold


C C/b Am F


C              C/b
Seems like a lifetime
Am                 F
Since you've been gone
C            C/b
Seems like forever
Am                F
I've been on the run


C              C/b
Feels like I'm fading
Am            F
Chill to the bone
Am                 G
Won't you let me sleep
                  C         C/b Am F
Cause I'm coming down cold
            C       C/b   Am F
I'm coming down cold
        C       C/b Am F
coming down cold


C C/b Am F


C          C/b
This emptyness
Am            F
won't let me go
C          C/b
I fear tomorrow
Am            F
I'll wake up old
C              C/b
But I'm not waiting
Am                F
On this lonesome road
Am            G
Just let me sleep
                C       C/b Am F
For I'm coming down cold
            C       C/b   Am F
I'm coming down cold
            C       C/b   Am F
I'm coming down cold

C C/b Am F

_______________
Tabbed by Robin
Tap to rate this tab
# A B C D E F G H I J K L M N O P Q R S T U V W X Y Z