Song name
# A B C D E F G H I J K L M N O P Q R S T U V W X Y Z

Misc Unsigned Bands - Iration - Falling tab

-------------------------------------------------------------------------------
			     Falling- Iration
-------------------------------------------------------------------------------
Tabbed by:chris7xx

Tuning:EADGBE

  Intro/Verse
e|-----------3-3---------------7-7~--------------------------------------------|
B|-5-5-------3-3------7-7------8-8~--------------------------------------------|
G|-5-5-------4-4------7-7------9-9~--------------------------------------------|
D|-5-5-------5-5------7-7------9-9~--------------------------------------------|
A|-3-3-------5-5------5-5------7-7~--------------------------------------------|
E|-----------3-3---------------------------------------------------------------|

  Chorus
e|-----------3------------------7------------------------------------------------|
B|--5--------3---------7--------8------------------------------------------------|
G|--5-(x4)---4-(x4)----7-(x4)---9-(x4)-------------------------------------------|
D|--5--------5---------7--------9------------------------------------------------|
A|--3--------5---------5--------7------------------------------------------------|
E|-----------3-------------------------------------------------------------------|

Rhythm is easy to figure out. just listen to the song.


                 irationtheband.com
Tap to rate this tab
# A B C D E F G H I J K L M N O P Q R S T U V W X Y Z