Song name
# A B C D E F G H I J K L M N O P Q R S T U V W X Y Z

Misc Unsigned Bands - Final Round - Smiles And Glances tab

My first tab guys, hope it works.
It's what I figured out and it sounds right to me!

http://www.purevolume.com/finalround

Song: Smiles and Glances
Artist: Final Round

Standard Tuning: EADGBe
Key:
.--palm mute
~--hold note
/--up-slide
\--down-slide

Intro:

Guitar 1 (Rhythm)
|--1-1-4-4-3-3-6-6-4-4-8-8-6-6-3-3--|		
|-----------------------------------|
|-----------------------------------|
|-----------------------------------|
|-----------------------------------|
|-----------------------------------|	3x
		
|--1-1-4-4-3-3-6-6-4-4-8-8-6-6-3----|
|-----------------------------------|
|-----------------------------------|
|-----------------------------------|
|-----------------------------------|
|-----------------------------------|	1x

Guitar 2 (Lead)
(Rest on 1st 3 G-1 Parts; For rest of song, do 4x)
Come in with:
|--8-8-4-4-6-6-3-3-1-1-0-0-1--------|
|-----------------------------------|
|-----------------------------------|
|-----------------------------------|
|-----------------------------------|
|-----------------------------------|

Verse:

G-1
|-----------------------------------|
|-----------------------------------|
|------------------8888888888888888-|
|-6666666666666666-8888888888888888-|
|-6666666666666666-6666666666666666-|
|-4444444444444444------------------|
  ................ ................





|----------------------------------|
|----------------------------------|
|-10101010101010101010101010101010-|
|-10101010101010101010101010101010-|
|- 8 8 8 8 8 8 8 8 8 8 8 8 8 8 8 8-|
|----------------------------------|
   . . . . . . . . . . . . . . . .
	
|----------------------------------|
|----------------------------------|
|-11111111111111111111111111111111-|
|-11111111111111111111111111111111-|
|- 9 9 9 9 9 9 9 9 9 9 9 9 9 9 9 9-|
|----------------------------------|
   . . . . . . . . . . . . . . . .			(all) 2x

G-2
|----------------------------------|
|----------------------------------|
|----------------------------------|
|-6~~~~~~~~~~~~~~~-----------------|
|-6~~~~~~~~~~~~~~~-----------------|
|-4~~~~~~~~~~~~~~~-----------------|	once per G-1 Verse 

Repeat Intro parts G-1 and G-2

Repeat Verse parts G-1 and G-2

Chorus 1:

G-1 and G-2
|-----------------------------------------------|
|-----------------------------------------------|
|-10-1010--101010-8-88--888-----------9-99--999-|
|- 8- 8 8-- 8 8 8-6-66--666-6-66--666-9-99--999-|
|- 8- 8 8-- 8 8 8-6-66--666-6-66--666-7-77--777-|
|---------------------------4-44--444-----------|		2x

|-----------------------------------------------|
|-----------------------------------------------|
|-10-1010--101010-8-88--888-----------6-66--666-|
|- 8- 8 8-- 8 8 8-6-66--666-6-6--6666-6-66--666-|
|- 8- 8 8-- 8 8 8-6-66--666-6-6--6666-4-44--444-|
|---------------------------4-4--4444-----------|

|-----------------------------------------|
|-----------------------------------------|
|-----------6-66--666-----------6-66--666-|
|-6-6--6666-6-66--666-6-66--666-6-66--666-|
|-6-6--6666-4-44--444-6-66--666-4-44--444-|
|-4-4--4444-----------4-44--444-----------|

|---------------------|
|---------------------|
|-8-88--888-9-99--999-|
|-8-88--888-9-99--999-|
|-6-66--666-7-77--777-|
|---------------------|

Repeat Intro parts G-1 and G-2

Verse 2-A (Bridge 1):

G-1 (same as Verse above)

G-2
|-4-4-8-8-6-6-8-8-|
|-4-4-8-8-6-6-8-8-|
|-----------------|
|-----------------|		
|-----------------|
|-----------------|		16x (solo?)

Verse 2-B:

G-1 (same as Verse above)

G-2
|-----------------------------------|
|-----------------------------------|
|-----------------------------------|
|-6~~~~~~~~~~~~~~~------------------|
|-6~~~~~~~~~~~~~~~------------------|
|-4~~~~~~~~~~~~~~~------------------|

|--------------------------********-|
|--------------------------********-|
|--------------------------********-|
|-6~~~~~~~~~~~~~~~---------********-|
|-6~~~~~~~~~~~~~~~---------********-|	
|-4~~~~~~~~~~~~~~~---------********-|	--> (pick scrape)
			
Repeat Chorus parts G-1 and G-2

Bridge 2/Guitar Solo:

G-1
|---------------------------------------|
|---------------------------------------|
|-101010-101010-888-888---------999-999-|
|-101010-101010-888-888-666-666-999-999-|
|- 8 8 8- 8 8 8-666-666-666-666-777-777-|
|-----------------------444-444---------|		2x
   . .    . .   ..  ..  ..  ..  ..  ..

|------------------------------------------|
|------------------------------------------|
|-101010-101010-888-888----------9-99--999-|
|-101010-101010-888-888-6-6-6666-9-99--999-|
|- 8 8 8- 8 8 8-666-666-6-6-6666-7-77--777-|
|-----------------------4-4-4444-----------|
   . .    . .   ..  ..  

|---------------------------------------|
|---------------------------------------|
|----------9-99--999----------6-66--666-|
|-6-6-6666-9-99--999-6-6-6666-6-66--666-|
|-6-6-6666-7-77--777-6-6-6666-4-44--444-|
|-4-4-4444-----------4-4-4444-----------|

|---------------------|
|---------------------|
|-8-88--888-9-99--999-|
|-8-88--888-9-99--999-|
|-6-66--666-7-77--777-|
|---------------------|

G-2
|-1-1-4-4-3-3-4-4-----4-4-3-3-4-4-|
|-----------------4-4-------------|
|---------------------------------|
|---------------------------------|
|---------------------------------|
|---------------------------------|

|-----4-4-3-3-4-4-7-7-4-4-3-3-0---|
|-4-4-----------------------------|
|---------------------------------|
|---------------------------------|
|---------------------------------|
|---------------------------------|	(all) 2x

|-1-1-4-4-3-3-4-4-----4-4-3-3-4---4/11\4---4/12\4--4/12-|
|-----------------4-4-----------------------------------|
|-------------------------------------------------------|
|-------------------------------------------------------|
|-------------------------------------------------------|
|-------------------------------------------------------|

|-4/11\4---4/12\4--4/12---4/11\4---4/12\4--4/11-|
|-----------------------------------------------|
|-----------------------------------------------|
|-----------------------------------------------|
|-----------------------------------------------|
|-----------------------------------------------|

|-12-12-4-4-12-12-4-4-11-11-12-12-13-13-14-14-|
|---------------------------------------------|
|---------------------------------------------|
|---------------------------------------------|
|---------------------------------------------|
|---------------------------------------------|

Pre-Chorus 3:

G-1 (Silent)

G-2
|---------------------------------------------|
|---------------------------------------------|
|-1010101010101010-88888888----------99999999-|
|-1010101010101010-88888888-66666666-99999999-|
|- 8 8 8 8 8 8 8 8-66666666-66666666-77777777-|
|---------------------------44444444----------|
   . . . . . . . . ........ ........ ........

|---------------------------------------------|
|---------------------------------------------|
|-1010101010101010-88888888----------9~~~~~~~-|
|-1010101010101010-88888888-66666666-9~~~~~~~-|
|- 8 8 8 8 8 8 8 8-66666666-66666666-7~~~~~~~-|
|---------------------------44444444----------|
   . . . . . . . . ........ ........

Repeat Chorus parts G-1 and G-2

Repeat Intro (Outro) parts G-1 and G-2

End on:

G-1 and G-2
|---------|
|---------|
|---------|
|-3~~~~---|
|-3~~~~---|
|-1~~~~---|
Tap to rate this tab
 
# A B C D E F G H I J K L M N O P Q R S T U V W X Y Z