Song name
# A B C D E F G H I J K L M N O P Q R S T U V W X Y Z

Misc Unsigned Bands - The Etceteras - Shadows tab

The Etceteras - SHADOWS

e|---------------------------------------|
B|---------4-----2--------------1--------|
G|---6--4--4--2--2--x3--6--4--2--2-------|
D|---6--4--4--2--2------6--4--2--2-------|
A|---4--2--2------------4--2-------------|
E|---------------------------------------|

CHORUS

e|---2--4-5-7--7-0-7-0-7------7-0--------|
B|------2-2-4-----------------------0----|
G|---1--2-2-4--6-6-6-6-6--x2------6------|
D|---2--4-4-6--7-7-7-7-7-----------------|
A|---2--4-4-6--7-7-7-7-7-----------------|
E|---------------------------------------|


Tap to rate this tab
# A B C D E F G H I J K L M N O P Q R S T U V W X Y Z