Song name
# A B C D E F G H I J K L M N O P Q R S T U V W X Y Z

Misc Unsigned Bands - Comfort - Children With Hand Grenades tab

Tuning in C# standard

|-----------------------------------------------
|-----------------------------------------------
|-------------------9---------------------------
|------------9--9-10-10-9-7-6-------3---7-------
|------7-9-10-10-------------8-7-5-4-4-3-8------
|-5-7-8-----------------------------------5-----


|--------------------------16-------------------------------12p9---------
|-----------------16--16-17--17-16-14-13-----------10-----13----10-------
|---------14-16-17--17------------------15-14-12-11--11-10--------9------
|-12-14-15---------------------------------------------------------11----
|--------------------------------------------------------------------12p9
|------------------------------------------------------------------------




|--------------------------------------------------------------------------|
|--------------------------------------------------------------------------|
|--------------------9----------------------------------9------------------|
|------2h3p2--5--000--10-9-7..6----------3----7-----------10-9-7/6---------|
|----2-------5---000----------8-7-5..4----4p3--8p5----------------8-7-5/4--|
|--0-------------000-----------------000---------000-000-------------------|
pm .             ...                 ...         ... ...


|--------------------------------------------------------------------------|
|--------------------------------------------------------------------------|
|-------------------------9------------------------------------------------|
|----3---------------------10-9-7/6--------3----7--------------------------|
|-----4p3---------4h8-7h10---------8-7-5/4--4p3--8p5---------5h8---7h10----|
|-000----0004h7000----------------------------------0004h7000---000----000-|
pm...    ...   ...                                  ...   ...   ...    ...


|----|-------9h12---------------------------|--------14p13h18|
|----|-----10-------------------------------|------14--------|
|----|----9-----------------------------9h12|----16----------|
|----|--11-----------------------7h10-------|--14------------|
|9h12|12-------------------5h8--------------|13--------------|
|----|------------0004h7000---000----000----|----------------|
pm                ...   ...   ...    ...


|-----10p7--------------------15h17p15------16h20-----------5h8|
|---------8-----------------18--------16--17---------------6---|
|----------7--------------19------------16----------------6----|
|----0------9-----0-----17--------------------------0----7-----|
|----0-------10p7-0-2-15----------------------------0-5h9------|
|-0000------------0-0----------------------------0000----------|
pm...             .                              ...


|7p3-------------------3h7------3h6|
|---5----------------4-----5---5---|
|----4-------------3--------4-4----|
|-----5----------5-----------4-----|
|------7p3-----4-------------------|
|----------1h5---------------------|


|-------------------------------------------------------------------------|
|-------------------------------------------------------------------------|
|-10-10-10-9-9-9-10-9-7------------------8-8-8-7-7-7-8-7-5----------------|
|--x--x--x-x-x-x-------10-8-7-8-7-5------x-x-x-x-x-x------8-6-5-6-5-3-----|
|--7--7--7-7-7-7-------------------8-6-5-5-5-5-5-5-5-----------------6-4-3|
|-------------------------------------------------------------------------|


|-----------------------------------------------------15-17-18-|
|---------------------------------------------14-15-17---------|
|-------------------------------------12-14-15-----------------|
|-----------------------7-9-10-9-10-12-------------------------|
|-----------5-7-8-7-8-10---------------------------------------|
|4-5-6-5-7-8---------------------------------------------------|


|----------------19-21-22-18-17-15-------------------------15h18p15-------|
|--------17-18-20-----------------18-17-15---------------17--------16--16-|
|15-17-18---------------------------------17--17-15-17-18------------15---|
|-------------------------------------------18----------------------------|
|-------------------------------------------------------------------------|
|-------------------------------------------------------------------------|


|15h18|
|-----|
|-----|
|-----|
|-----|
|-----|

(x2)
|-----------------------------------------------------------------------|
|-----------------------------------------------------------------------|
|-----------------------------------------------------------------------|
|-000001-00-00---000-000-------000-000-----001----000001---00-00----001-|
|-000001-00-00---000-000-------000-000-----001----000001---00-00----001-|
|-000001-00-00---000-000-------000-000-----001----000001---00-00----001-|
pm.....  .. ..   ... ...       ... ...     ..     .....    .. ..    ..


|--------------|------------------------------------------------------------|
|------------11|-----------------19/18--------------------------------------|
|--------10----|--12/11----16--17-----17--15^/13---11---------------------9-|
|--7/8-7-------|-9-------14--15-------15--13^/12-9----12--9---------6---7---|
|-5------------|7------12-----------------------------------10--7-5---8-----|
|--------------|------------------------------------------------------------|


|-------------|
|-------------|
|-------------|
|-----12-----7|
|--10----10--5|
|-------------|
Tap to rate this tab
 
# A B C D E F G H I J K L M N O P Q R S T U V W X Y Z