Song name
# A B C D E F G H I J K L M N O P Q R S T U V W X Y Z

Misc Unsigned Bands - Bobot Adrenaline - Penalty Box tab

PENALTY BOX

BOBOT ADRENALINE

I'm pretty sure this is right

Intro:

e|----------------------------------------------- |
B|----------------------------------------------- |
G|----------------------------------------11--14- |
D|--11/12-12-12--11/12-12-12--11/12-12-12-11--14- | 
A|--11/12-12-12--11/12-12-12--11/12-12-12-9---12- |
E|---9/10-10-10--9/-10-10-10--9/-10-10-10-------- \
                                                   x2
e|----------------------------------------------- /
B|----------------------------------------------- |
G|----------------------------------------11--11- |
D|--11/12-12-12--11/12-12-12--11/12-12-12-11--11- |
A|--11/12-12-12--11/12-12-12--11/12-12-12-9---9-- |
E|---9/10-10-10--9/-10-10-10--9/-10-10-10-------- |

Verse:
The D5's are sort of muted first then played, if you listen to the song, you'll pick it up.
e|----------------------|
B|----------------------|
G|-7-7-7------7-7-7-----| x3
D|-7-7-7--5-7-7-7-7-5-5-|
A|-5-5-5--5-7-5-5-5-5-5-|
E|--------3-5-------3-3-|

Then:

e|-----------|
B|-----------|
G|-7-7-7-----| 
D|-7-7-7-7-5-|
A|-5-5-5-7-5-|
E|-------5-3-|


Then back to the verse.

Pre Chorus:

e|------------------------------------------------------------------|
B|------------------------------------------------------------------|
G|------------------------------------------------------------------|
D|--5-5-5-5-5-5-5-5-7-7-7-7-7-7-7-7-5-5-5-5-5-5-5-5-4-4-4-4-2-2-2-2-|
A|--5-5-5-5-5-5-5-5-7-7-7-7-7-7-7-7-5-5-5-5-5-5-5-5-4-4-4-4-2-2-2-2-|
E|--3-3-3-3-3-3-3-3-5-5-5-5-5-5-5-5-3-3-3-3-3-3-3-3-2-2-2-2-0-0-0-0-|

Chorus:

e|---------------------------------|
B|---------------------------------|
G|-7-7-7-7-------------------------|
D|-7-7-7-7-7-7-7-7-5-5-5-5-7-7-7-7-|
A|-5-5-5-5-7-7-7-7-5-5-5-5-7-7-7-7-|
E|---------5-5-5-5-3-3-3-3-5-5-5-5-|

Intro Riff

Verse

Chorus (but instead of ending normally, end with:

e|------5--------5--------5-------------|
B|-------5--------5--------5------------|
G|--------5--------5--------5-----------|
D|--5-5------7-7------5-5-------5-5---7-|
A|--5-5------7-7------5-5-------5-5---7-|
E|--3-3------5-5------3-3-------3-3---5-|

Solo:

e|-------------------------------------|
B|--10-9-7-9-8-6-7-5-2h4-2h4-----------|
G|-7-----------------------------------|
D|-------------------------------------|
A|-------------------------------------|
E|-------------------------------------|


Pre Chorus 2:
                      |________________x4___________________| 
e|--------------------|-------------------------------------|
B|--------------------|-------------------------------------|
G|--------------------|-7-7-7-7-7-7-7-7---------------------|
D|-2--4--5---7----5-7-|-7-7-7-7-7-7-7-7-7-5-5-5-5-5-5-5-5-5-|
A|-2--4--5---7----5-7-|-5-5-5-5-5-5-5-5-7-5-5-5-5-5-5-5-5-5-|
E|-0--2--3---5----3-5-|-----------------5-3-3-3-3-3-3-3-3-3-|

Intro Riff

Pre chorus (WITH OPEN CHORDS)

Chorus

Intro Riff

End on Open E

There you have it, comments/corrections welcome



Tap to rate this tab
 
# A B C D E F G H I J K L M N O P Q R S T U V W X Y Z