Song name
# A B C D E F G H I J K L M N O P Q R S T U V W X Y Z

Misc Unsigned Bands - Libra - The Libra Ad tab

THE LIBRA AD
BY LIBRA!

e|---------------------------------------------------------------------------|
B|---------------------------------------------------------------------------|             x3
G|---------------------------------------------------------------------------|
D|--7--7--7--7--5--5--5--5--10--10--10--3--3--3--3---------------------------|
A|--5--5--5--5--3--3--3--3--8---8---8---5--5--5--5---------------------------|
E|---------------------------------------------------------------------------|

e|---------------------------------------------------------------------------|
B|---------------------------------------------------------------------------|
G|---------------------------------------------------------------------------|
D|---------------------------------------------------------------------------|
A|--7--5--3------------------------------------------------------------------|
E|--5--3--1------------------------------------------------------------------|

Tap to rate this tab
 
# A B C D E F G H I J K L M N O P Q R S T U V W X Y Z