Song name
# A B C D E F G H I J K L M N O P Q R S T U V W X Y Z

Misc Unsigned Bands - Beware - Halloween Ii tab

Song Name:"Halloween II"
Band Name:Beware
Album Name:Beware! Zombie Xing (Beware Demo)

Tabber:Toki Vengeance (Dakota Fletcher)
Tuning:Drop D (D,A,D,G,B,E)
More Info:This is version 2 of Beware's "Halloween".
The genre of this song is Horror Rockabilly.


Intro:
E:--------------------------------------------------------------|
B:--------------------------------------------------------------|
G:--------------------------------------------------------------|
D:-0----0----0----0----3----3----3----3----5----5----5----5-----|
A:-0----0----0----0----3----3----3----3----5----5----5----5-----|
D:-0-xx-0-xx-0-xx-0-xx-3-xx-3-xx-3-xx-3-xx-5-xx-5-xx-5-xx-5-xx--|


Riff 1:
E:---------------------------------|
B:---------------------------------|
G:---------------------------------|
D:---------------------------------|
A:---------------------------------|
D:-0-0-3-3-4-4-5-5-6-6-5-5-4-4-3-3-|


Verse 1:
E:-----------------------------------------------------------------|
B:-----------------------------------------------------------------|
G:-----------------------------------------------------------------|
D:-----------------------------------------------------------------|
A:-----------------------------------------------------------------|
D:---------------------------------0-0-3-3-4-4-5-5-6-6-5-5-4-4-3-3-|


Chorus:
E:-----------------------------------------------------------------------|
B:-----------------------------------------------------------------------|
G:-11-11-11-11-11-11--7-7-7-7-7-7----------------11--7-7--9--11--7-7--9--|
D:-11-11-11-11-11-11--7-7-7-7-7-7--7-7-7-7-7-7---11--7-7--9--11--7-7--9--|
A:--9--9--9--9--9--9--5-5-5-5-5-5--7-7-7-7-7-7----9--5-5--7---9--5-5--7--|
D:---------------------------------7-7-7-7-7-7---------------------------| x3

E:-----------------------------------------------------------------------|
B:-----------------------------------------------------------------------|
G:-11-11-11-11-11-11--7-7-7-7-7-7----------------------------------------|
D:-11-11-11-11-11-11--7-7-7-7-7-7--7-------------------------------------|
A:--9--9--9--9--9--9--5-5-5-5-5-5--7-------------------------------------|
D:---------------------------------7-------------------------------------| x1


Verse 2:
E:-----------------------------------------------------------------|
B:-----------------------------------------------------------------|
G:--------------11-11-11-11-11-11--7----9--11--7-7--9--11--7-7--9--|
D:-7-7-7-7-7-7--11-11-11-11-11-11--7----9--11--7-7--9--11--7-7--9--|
A:-7-7-7-7-7-7---9--9--9--9--9--9--5----7---9--5-5--7---9--5-5--7--|
D:-7-7-7-7-7-7-----------------------------------------------------|

E:-----------------------------------------------------------------------|
B:-----------------------------------------------------------------------|
G:-11-11-11-11-11-11--7-7-7-7-7-7----------------11--7-7--9--11--7-7--9--|
D:-11-11-11-11-11-11--7-7-7-7-7-7--7-7-7-7-7-7---11--7-7--9--11--7-7--9--|
A:--9--9--9--9--9--9--5-5-5-5-5-5--7-7-7-7-7-7----9--5-5--7---9--5-5--7--|
D:---------------------------------7-7-7-7-7-7---------------------------| 

E:------------------------------------|
B:------------------------------------|
G:-11-11-11-11-11-11--7-7-7-7-7-7-----|
D:-11-11-11-11-11-11--7-7-7-7-7-7--7--|
A:--9--9--9--9--9--9--5-5-5-5-5-5--7--|
D:---------------------------------7--|


Guitar Solo:
[Still in the process of being tabbed]


Outro:
E:--------------------------------------------------------------------------|
B:--------------------------------------------------------------------------|
G:-7------------------------------------------------------------------------|
D:-7------------7-----------4---------------------------------------------3-|
A:-5------------7-----------4---------------------------------------------3-|
D:--------------7-----------4------------0-0-3-3-4-4-5-5-6-6-5-5-4-4-3-3--3-|
                                                                          .

Order:
Intro       x3
[Pause]
Riff 1      x2
Verse 1     x4
Riff 1      x2
Chorus
Riff 1      x2
Verse 1     x4
Riff 1      x2
Verse 2
Guitar Solo
Chorus
Outro
Tap to rate this tab
 
# A B C D E F G H I J K L M N O P Q R S T U V W X Y Z